  0
SECTION
  2
HEADER
  9
$ACADVER
  1
AC1015
  9
$ACADMAINTVER
 70
     6
  9
$DWGCODEPAGE
  3
ANSI_1254
  9
$INSBASE
 10
0.0
 20
0.0
 30
0.0
  9
$EXTMIN
 10
0.0
 20
0.0
 30
0.0
  9
$EXTMAX
 10
279.4
 20
215.9
 30
0.0
  9
$LIMMIN
 10
0.0
 20
0.0
  9
$LIMMAX
 10
279.4
 20
215.9
  9
$ORTHOMODE
 70
     0
  9
$REGENMODE
 70
     1
  9
$FILLMODE
 70
     1
  9
$QTEXTMODE
 70
     0
  9
$MIRRTEXT
 70
     1
  9
$LTSCALE
 40
1.0
  9
$ATTMODE
 70
     1
  9
$TEXTSIZE
 40
3.5
  9
$TRACEWID
 40
1.0
  9
$TEXTSTYLE
  7
Standard
  9
$CLAYER
  8
0
  9
$CELTYPE
  6
ByLayer
  9
$CECOLOR
 62
   256
  9
$CELTSCALE
 40
1.0
  9
$DISPSILH
 70
     0
  9
$DIMSCALE
 40
1.0
  9
$DIMASZ
 40
3.5
  9
$DIMEXO
 40
1.0
  9
$DIMDLI
 40
3.75
  9
$DIMRND
 40
0.0
  9
$DIMDLE
 40
0.0
  9
$DIMEXE
 40
1.0
  9
$DIMTP
 40
0.0
  9
$DIMTM
 40
0.0
  9
$DIMTXT
 40
3.5
  9
$DIMCEN
 40
2.5
  9
$DIMTSZ
 40
0.0
  9
$DIMTOL
 70
     0
  9
$DIMLIM
 70
     0
  9
$DIMTIH
 70
     1
  9
$DIMTOH
 70
     1
  9
$DIMSE1
 70
     0
  9
$DIMSE2
 70
     0
  9
$DIMTAD
 70
     1
  9
$DIMZIN
 70
     0
  9
$DIMBLK
  1

  9
$DIMASO
 70
     1
  9
$DIMSHO
 70
     1
  9
$DIMPOST
  1

  9
$DIMAPOST
  1

  9
$DIMALT
 70
     0
  9
$DIMALTD
 70
     3
  9
$DIMALTF
 40
0.0393700787
  9
$DIMLFAC
 40
1.0
  9
$DIMTOFL
 70
     1
  9
$DIMTVP
 40
0.0
  9
$DIMTIX
 70
     0
  9
$DIMSOXD
 70
     0
  9
$DIMSAH
 70
     0
  9
$DIMBLK1
  1

  9
$DIMBLK2
  1

  9
$DIMSTYLE
  2
ISO-25
  9
$DIMCLRD
 70
     0
  9
$DIMCLRE
 70
     0
  9
$DIMCLRT
 70
     0
  9
$DIMTFAC
 40
1.0
  9
$DIMGAP
 40
1.524
  9
$DIMJUST
 70
     0
  9
$DIMSD1
 70
     0
  9
$DIMSD2
 70
     0
  9
$DIMTOLJ
 70
     0
  9
$DIMTZIN
 70
     0
  9
$DIMALTZ
 70
     0
  9
$DIMALTTZ
 70
     0
  9
$DIMUPT
 70
     0
  9
$DIMDEC
 70
     2
  9
$DIMTDEC
 70
     2
  9
$DIMALTU
 70
     2
  9
$DIMALTTD
 70
     3
  9
$DIMTXSTY
  7
Standard
  9
$DIMAUNIT
 70
     0
  9
$DIMADEC
 70
     2
  9
$DIMALTRND
 40
0.0
  9
$DIMAZIN
 70
     0
  9
$DIMDSEP
 70
    44
  9
$DIMATFIT
 70
     3
  9
$DIMFRAC
 70
     0
  9
$DIMLDRBLK
  1

  9
$DIMLUNIT
 70
     2
  9
$DIMLWD
 70
    -2
  9
$DIMLWE
 70
    -2
  9
$DIMTMOVE
 70
     0
  9
$LUNITS
 70
     2
  9
$LUPREC
 70
     2
  9
$SKETCHINC
 40
1.0
  9
$FILLETRAD
 40
10.0
  9
$AUNITS
 70
     0
  9
$AUPREC
 70
     2
  9
$MENU
  1
.
  9
$ELEVATION
 40
0.0
  9
$PELEVATION
 40
0.0
  9
$THICKNESS
 40
0.0
  9
$LIMCHECK
 70
     0
  9
$CHAMFERA
 40
0.0
  9
$CHAMFERB
 40
0.0
  9
$CHAMFERC
 40
0.0
  9
$CHAMFERD
 40
0.0
  9
$SKPOLY
 70
     0
  9
$TDCREATE
 40
2458985.711346343
  9
$TDUCREATE
 40
2458985.586346343
  9
$TDUPDATE
 40
2458985.711346655
  9
$TDUUPDATE
 40
2458985.586346655
  9
$TDINDWG
 40
0.0000000116
  9
$TDUSRTIMER
 40
0.0000000116
  9
$USRTIMER
 70
     1
  9
$ANGBASE
 50
0.0
  9
$ANGDIR
 70
     0
  9
$PDMODE
 70
     0
  9
$PDSIZE
 40
-1.0
  9
$PLINEWID
 40
0.0
  9
$SPLFRAME
 70
     0
  9
$SPLINETYPE
 70
     6
  9
$SPLINESEGS
 70
     8
  9
$HANDSEED
  5
10A
  9
$SURFTAB1
 70
     6
  9
$SURFTAB2
 70
     6
  9
$SURFTYPE
 70
     6
  9
$SURFU
 70
     6
  9
$SURFV
 70
     6
  9
$UCSBASE
  2

  9
$UCSNAME
  2

  9
$UCSORG
 10
0.0
 20
0.0
 30
0.0
  9
$UCSXDIR
 10
1.0
 20
0.0
 30
0.0
  9
$UCSYDIR
 10
0.0
 20
1.0
 30
0.0
  9
$UCSORTHOREF
  2

  9
$UCSORTHOVIEW
 70
     0
  9
$UCSORGTOP
 10
0.0
 20
0.0
 30
0.0
  9
$UCSORGBOTTOM
 10
0.0
 20
0.0
 30
0.0
  9
$UCSORGLEFT
 10
0.0
 20
0.0
 30
0.0
  9
$UCSORGRIGHT
 10
0.0
 20
0.0
 30
0.0
  9
$UCSORGFRONT
 10
0.0
 20
0.0
 30
0.0
  9
$UCSORGBACK
 10
0.0
 20
0.0
 30
0.0
  9
$PUCSBASE
  2

  9
$PUCSNAME
  2

  9
$PUCSORG
 10
0.0
 20
0.0
 30
0.0
  9
$PUCSXDIR
 10
1.0
 20
0.0
 30
0.0
  9
$PUCSYDIR
 10
0.0
 20
1.0
 30
0.0
  9
$PUCSORTHOREF
  2

  9
$PUCSORTHOVIEW
 70
     0
  9
$PUCSORGTOP
 10
0.0
 20
0.0
 30
0.0
  9
$PUCSORGBOTTOM
 10
0.0
 20
0.0
 30
0.0
  9
$PUCSORGLEFT
 10
0.0
 20
0.0
 30
0.0
  9
$PUCSORGRIGHT
 10
0.0
 20
0.0
 30
0.0
  9
$PUCSORGFRONT
 10
0.0
 20
0.0
 30
0.0
  9
$PUCSORGBACK
 10
0.0
 20
0.0
 30
0.0
  9
$USERI1
 70
     0
  9
$USERI2
 70
     0
  9
$USERI3
 70
     0
  9
$USERI4
 70
     0
  9
$USERI5
 70
     0
  9
$USERR1
 40
0.0
  9
$USERR2
 40
0.0
  9
$USERR3
 40
0.0
  9
$USERR4
 40
0.0
  9
$USERR5
 40
0.0
  9
$WORLDVIEW
 70
     1
  9
$SHADEDGE
 70
     3
  9
$SHADEDIF
 70
    70
  9
$TILEMODE
 70
     1
  9
$MAXACTVP
 70
    64
  9
$PINSBASE
 10
0.0
 20
0.0
 30
0.0
  9
$PLIMCHECK
 70
     0
  9
$PEXTMIN
 10
1.0000000000E+20
 20
1.0000000000E+20
 30
1.0000000000E+20
  9
$PEXTMAX
 10
-1.0000000000E+20
 20
-1.0000000000E+20
 30
-1.0000000000E+20
  9
$PLIMMIN
 10
0.0
 20
0.0
  9
$PLIMMAX
 10
420.0
 20
297.0
  9
$UNITMODE
 70
     0
  9
$VISRETAIN
 70
     1
  9
$PLINEGEN
 70
     0
  9
$PSLTSCALE
 70
     1
  9
$TREEDEPTH
 70
  3020
  9
$CMLSTYLE
  2
Standard
  9
$CMLJUST
 70
     0
  9
$CMLSCALE
 40
20.0
  9
$PROXYGRAPHICS
 70
     1
  9
$MEASUREMENT
 70
     1
  9
$CELWEIGHT
370
    -1
  9
$ENDCAPS
280
     0
  9
$JOINSTYLE
280
     0
  9
$LWDISPLAY
290
     1
  9
$INSUNITS
 70
     4
  9
$HYPERLINKBASE
  1

  9
$STYLESHEET
  1

  9
$XEDIT
290
     1
  9
$CEPSNTYPE
380
     0
  9
$PSTYLEMODE
290
     1
  9
$FINGERPRINTGUID
  2
{bddf4e3c-61db-4ff2-abba-1fd7faafad8f}
  9
$VERSIONGUID
  2
{FAEB1C32-E019-11D5-929B-00C0DF256EC4}
  9
$EXTNAMES
290
     1
  9
$PSVPSCALE
 40
0.0
  9
$OLESTARTUP
290
     0
  0
ENDSEC
  0
SECTION
  2
CLASSES
  0
CLASS
  1
ACDBDICTIONARYWDFLT
  2
AcDbDictionaryWithDefault
  3
ObjectDBX Classes
 90
        0
280
     0
281
     0
  0
CLASS
  1
VISUALSTYLE
  2
AcDbVisualStyle
  3
ObjectDBX Classes
 90
     4095
280
     0
281
     0
  0
CLASS
  1
MATERIAL
  2
AcDbMaterial
  3
ObjectDBX Classes
 90
     1153
280
     0
281
     0
  0
CLASS
  1
SCALE
  2
AcDbScale
  3
ObjectDBX Classes
 90
     1153
280
     0
281
     0
  0
CLASS
  1
TABLESTYLE
  2
AcDbTableStyle
  3
ObjectDBX Classes
 90
     4095
280
     0
281
     0
  0
CLASS
  1
MLEADERSTYLE
  2
AcDbMLeaderStyle
  3
ACDB_MLEADERSTYLE_CLASS
 90
     4095
280
     0
281
     0
  0
CLASS
  1
SUN
  2
AcDbSun
  3
SCENEOE
 90
     1153
280
     0
281
     0
  0
CLASS
  1
ACDBPLACEHOLDER
  2
AcDbPlaceHolder
  3
ObjectDBX Classes
 90
        0
280
     0
281
     0
  0
CLASS
  1
LAYOUT
  2
AcDbLayout
  3
ObjectDBX Classes
 90
        0
280
     0
281
     0
  0
ENDSEC
  0
SECTION
  2
TABLES
  0
TABLE
  2
VPORT
  5
8
330
0
100
AcDbSymbolTable
 70
     1
  0
VPORT
  5
29
330
8
100
AcDbSymbolTableRecord
100
AcDbViewportTableRecord
  2
*Active
 70
     0
 10
0.0
 20
0.0
 11
1.0
 21
1.0
 12
139.7
 22
107.95
 13
0.0
 23
0.0
 14
10.0
 24
10.0
 15
10.0
 25
10.0
 16
0.0
 26
0.0
 36
1.0
 17
0.0
 27
0.0
 37
0.0
 40
215.9
 41
1.2941176471
 42
50.0
 43
0.0
 44
0.0
 50
0.0
 51
0.0
 71
     0
 72
  2000
 73
     1
 74
     3
 75
     0
 76
     0
 77
     0
 78
     0
281
     0
 65
     1
110
0.0
120
0.0
130
0.0
111
1.0
121
0.0
131
0.0
112
0.0
122
1.0
132
0.0
 79
     0
146
0.0
  0
ENDTAB
  0
TABLE
  2
LTYPE
  5
5
330
0
100
AcDbSymbolTable
 70
     6
  0
LTYPE
  5
14
330
5
100
AcDbSymbolTableRecord
100
AcDbLinetypeTableRecord
  2
ByBlock
 70
     0
  3

 72
    65
 73
     0
 40
0.0
  0
LTYPE
  5
15
330
5
100
AcDbSymbolTableRecord
100
AcDbLinetypeTableRecord
  2
ByLayer
 70
     0
  3

 72
    65
 73
     0
 40
0.0
  0
LTYPE
  5
16
330
5
100
AcDbSymbolTableRecord
100
AcDbLinetypeTableRecord
  2
Continuous
 70
     0
  3
Solid line
 72
    65
 73
     0
 40
0.0
  0
LTYPE
  5
6E
330
5
100
AcDbSymbolTableRecord
100
AcDbLinetypeTableRecord
  2
HIDDEN
 70
     0
  3
Hidden __ __ __ __ __ __ __ __ __ __ __ __ __ __
 72
    65
 73
     2
 40
1.905
 49
1.27
 74
     0
 49
-0.635
 74
     0
  0
LTYPE
  5
6F
330
5
100
AcDbSymbolTableRecord
100
AcDbLinetypeTableRecord
  2
PHANTOM
 70
     0
  3
Phantom ______  __  __  ______  __  __  ______
 72
    65
 73
     6
 40
12.7
 49
6.35
 74
     0
 49
-1.27
 74
     0
 49
1.27
 74
     0
 49
-1.27
 74
     0
 49
1.27
 74
     0
 49
-1.27
 74
     0
  0
LTYPE
  5
70
330
5
100
AcDbSymbolTableRecord
100
AcDbLinetypeTableRecord
  2
CENTER
 70
     0
  3
Center ____ _ ____ _ ____ _ ____ _ ____ _ ____
 72
    65
 73
     4
 40
10.16
 49
6.35
 74
     0
 49
-1.27
 74
     0
 49
1.27
 74
     0
 49
-1.27
 74
     0
  0
LTYPE
  5
71
330
5
100
AcDbSymbolTableRecord
100
AcDbLinetypeTableRecord
  2
CENTERX2
 70
     0
  3
Center (2x) ________  __  ________  __  _____
 72
    65
 73
     4
 40
20.32
 49
12.7
 74
     0
 49
-2.54
 74
     0
 49
2.54
 74
     0
 49
-2.54
 74
     0
  0
LTYPE
  5
72
330
5
100
AcDbSymbolTableRecord
100
AcDbLinetypeTableRecord
  2
DOT2
 70
     0
  3
Dot (.5x) ........................................
 72
    65
 73
     2
 40
0.635
 49
0.0
 74
     0
 49
-0.635
 74
     0
  0
ENDTAB
  0
TABLE
  2
LAYER
  5
2
330
0
100
AcDbSymbolTable
 70
    17
  0
LAYER
  5
10
330
2
100
AcDbSymbolTableRecord
100
AcDbLayerTableRecord
  2
0
 70
     0
 62
     7
  6
Continuous
370
    -3
390
F
  0
LAYER
  5
73
330
2
100
AcDbSymbolTableRecord
100
AcDbLayerTableRecord
  2
FORMAT
 70
     0
 62
     7
  6
Continuous
370
    -3
390
F
  0
LAYER
  5
74
330
2
100
AcDbSymbolTableRecord
100
AcDbLayerTableRecord
  2
YARDIMCI_GEOMETRI
 70
     0
 62
    -6
  6
Continuous
290
     0
370
    -3
390
F
  0
LAYER
  5
75
330
2
100
AcDbSymbolTableRecord
100
AcDbLayerTableRecord
  2
SAYFA_CERCEVESI
 70
     0
 62
     7
  6
Continuous
370
    25
390
F
  0
LAYER
  5
76
330
2
100
AcDbSymbolTableRecord
100
AcDbLayerTableRecord
  2
ANTET
 70
     0
 62
     7
  6
Continuous
370
    -3
390
F
  0
LAYER
  5
77
330
2
100
AcDbSymbolTableRecord
100
AcDbLayerTableRecord
  2
OLCU
 70
     0
 62
   150
  6
Continuous
370
    -3
390
F
  0
LAYER
  5
78
330
2
100
AcDbSymbolTableRecord
100
AcDbLayerTableRecord
  2
METIN
 70
     0
 62
    96
  6
Continuous
370
    -3
390
F
  0
LAYER
  5
79
330
2
100
AcDbSymbolTableRecord
100
AcDbLayerTableRecord
  2
BALON
 70
     0
 62
     5
  6
Continuous
370
    -3
390
F
  0
LAYER
  5
7A
330
2
100
AcDbSymbolTableRecord
100
AcDbLayerTableRecord
  2
VURGU
 70
     0
 62
     7
  6
Continuous
370
    -3
390
F
  0
LAYER
  5
7B
330
2
100
AcDbSymbolTableRecord
100
AcDbLayerTableRecord
  2
SILIK
 70
     0
 62
     7
  6
Continuous
370
    -3
390
F
  0
LAYER
  5
7C
330
2
100
AcDbSymbolTableRecord
100
AcDbLayerTableRecord
  2
MODEL
 70
     0
 62
     7
  6
Continuous
370
    -3
390
F
  0
LAYER
  5
7D
330
2
100
AcDbSymbolTableRecord
100
AcDbLayerTableRecord
  2
DETAYLANDıRMA
 70
     0
 62
   190
  6
Continuous
370
    -3
390
F
  0
LAYER
  5
7E
330
2
100
AcDbSymbolTableRecord
100
AcDbLayerTableRecord
  2
TOLERANS
 70
     0
 62
   230
  6
Continuous
370
    -3
390
F
  0
LAYER
  5
7F
330
2
100
AcDbSymbolTableRecord
100
AcDbLayerTableRecord
  2
MERKEZ_CIZGILERI
 70
     0
 62
    30
  6
Continuous
370
    -3
390
F
  0
LAYER
  5
80
330
2
100
AcDbSymbolTableRecord
100
AcDbLayerTableRecord
  2
KESIT-DETAY_CIZGILERI
 70
     0
 62
     7
  6
Continuous
370
    -3
390
F
  0
LAYER
  5
81
330
2
100
AcDbSymbolTableRecord
100
AcDbLayerTableRecord
  2
\U+041E\U+0421\U+0415\U+0412\U+042B\U+0415
 70
     0
 62
     7
  6
Continuous
370
    -3
390
F
  0
LAYER
  5
82
330
2
100
AcDbSymbolTableRecord
100
AcDbLayerTableRecord
  2
\U+0412\U+041E\U+0414\U+042F\U+041D\U+042B\U+0415_\U+0417\U+041D\U+0410\U+041A\U+0418
 70
     0
 62
    11
  6
Continuous
370
    -3
390
F
  0
ENDTAB
  0
TABLE
  2
STYLE
  5
3
330
0
100
AcDbSymbolTable
 70
     1
  0
STYLE
  5
11
330
3
100
AcDbSymbolTableRecord
100
AcDbTextStyleTableRecord
  2
Standard
 70
     0
 40
0.0
 41
1.0
 50
0.0
 71
     0
 42
3.5
  3
txt
  4

  0
ENDTAB
  0
TABLE
  2
VIEW
  5
6
330
0
100
AcDbSymbolTable
 70
     0
  0
ENDTAB
  0
TABLE
  2
UCS
  5
7
330
0
100
AcDbSymbolTable
 70
     0
  0
ENDTAB
  0
TABLE
  2
APPID
  5
9
330
0
100
AcDbSymbolTable
 70
     1
  0
APPID
  5
12
330
9
100
AcDbSymbolTableRecord
100
AcDbRegAppTableRecord
  2
ACAD
 70
     0
  0
ENDTAB
  0
TABLE
  2
DIMSTYLE
  5
A
330
0
100
AcDbSymbolTable
 70
     1
100
AcDbDimStyleTable
  0
DIMSTYLE
105
27
330
A
100
AcDbSymbolTableRecord
100
AcDbDimStyleTableRecord
  2
ISO-25
 70
     0
 41
2.5
 42
0.625
 43
3.75
 44
1.25
 73
     0
 74
     0
 77
     1
 78
     8
140
2.5
141
2.5
143
0.0393700787
147
0.625
171
     3
172
     1
178
     0
271
     2
272
     2
274
     3
278
    44
283
     0
284
     8
340
11
  0
ENDTAB
  0
TABLE
  2
BLOCK_RECORD
  5
1
330
0
100
AcDbSymbolTable
 70
     2
  0
BLOCK_RECORD
  5
1F
330
1
100
AcDbSymbolTableRecord
100
AcDbBlockTableRecord
  2
*Model_Space
340
22
  0
BLOCK_RECORD
  5
1B
330
1
100
AcDbSymbolTableRecord
100
AcDbBlockTableRecord
  2
*Paper_Space
340
1E
  0
BLOCK_RECORD
  5
23
330
1
100
AcDbSymbolTableRecord
100
AcDbBlockTableRecord
  2
*Paper_Space0
340
26
  0
BLOCK_RECORD
  5
88
330
1
100
AcDbSymbolTableRecord
100
AcDbBlockTableRecord
  2
SW_CENTERMARKSYMBOL_0
340
0
102
{BLKREFS
331
93
102
}
  0
ENDTAB
  0
ENDSEC
  0
SECTION
  2
BLOCKS
  0
BLOCK
  5
20
330
1F
100
AcDbEntity
  8
0
100
AcDbBlockBegin
  2
*Model_Space
 70
     0
 10
0.0
 20
0.0
 30
0.0
  3
*Model_Space
  1

  0
ENDBLK
  5
21
330
1F
100
AcDbEntity
  8
0
100
AcDbBlockEnd
  0
BLOCK
  5
1C
330
1B
100
AcDbEntity
 67
     1
  8
0
100
AcDbBlockBegin
  2
*Paper_Space
 70
     0
 10
0.0
 20
0.0
 30
0.0
  3
*Paper_Space
  1

  0
ENDBLK
  5
1D
330
1B
100
AcDbEntity
 67
     1
  8
0
100
AcDbBlockEnd
  0
BLOCK
  5
24
330
23
100
AcDbEntity
  8
0
100
AcDbBlockBegin
  2
*Paper_Space0
 70
     0
 10
0.0
 20
0.0
 30
0.0
  3
*Paper_Space0
  1

  0
ENDBLK
  5
25
330
23
100
AcDbEntity
  8
0
100
AcDbBlockEnd
  0
BLOCK
  5
89
330
88
100
AcDbEntity
  8
0
100
AcDbBlockBegin
  2
SW_CENTERMARKSYMBOL_0
 70
     0
 10
0.0
 20
0.0
 30
0.0
  3
SW_CENTERMARKSYMBOL_0
  1

  0
LINE
  5
8B
330
88
100
AcDbEntity
  8
FORMAT
 62
     0
100
AcDbLine
 10
0.0
 20
0.0
 30
0.0
 11
0.0
 21
2.5
 31
0.0
  0
LINE
  5
8C
330
88
100
AcDbEntity
  8
FORMAT
 62
     0
100
AcDbLine
 10
0.0
 20
0.0
 30
0.0
 11
-2.5
 21
0.0
 31
0.0
  0
LINE
  5
8D
330
88
100
AcDbEntity
  8
FORMAT
 62
     0
100
AcDbLine
 10
0.0
 20
0.0
 30
0.0
 11
0.0
 21
-2.5
 31
0.0
  0
LINE
  5
8E
330
88
100
AcDbEntity
  8
FORMAT
 62
     0
100
AcDbLine
 10
0.0
 20
0.0
 30
0.0
 11
2.5
 21
0.0
 31
0.0
  0
LINE
  5
8F
330
88
100
AcDbEntity
  8
FORMAT
 62
     0
100
AcDbLine
 10
0.0
 20
5.0
 30
0.0
 11
0.0
 21
115.0
 31
0.0
  0
LINE
  5
90
330
88
100
AcDbEntity
  8
FORMAT
 62
     0
100
AcDbLine
 10
-5.0
 20
0.0
 30
0.0
 11
-115.0
 21
0.0
 31
0.0
  0
LINE
  5
91
330
88
100
AcDbEntity
  8
FORMAT
 62
     0
100
AcDbLine
 10
0.0
 20
-5.0
 30
0.0
 11
0.0
 21
-115.0
 31
0.0
  0
LINE
  5
92
330
88
100
AcDbEntity
  8
FORMAT
 62
     0
100
AcDbLine
 10
5.0
 20
0.0
 30
0.0
 11
115.0
 21
0.0
 31
0.0
  0
ENDBLK
  5
8A
330
88
100
AcDbEntity
  8
0
100
AcDbBlockEnd
  0
ENDSEC
  0
SECTION
  2
ENTITIES
  0
CIRCLE
  5
83
330
1F
100
AcDbEntity
  8
0
  6
Continuous
 62
     7
370
    25
100
AcDbCircle
 10
136.3914362981
 20
115.8905528846
 30
0.0
 40
70.50000000000001
  0
CIRCLE
  5
84
330
1F
100
AcDbEntity
  8
0
  6
Continuous
 62
     7
370
    25
100
AcDbCircle
 10
136.3914362981
 20
115.8905528846
 30
0.0
 40
80.00000000000001
  0
CIRCLE
  5
85
330
1F
100
AcDbEntity
  8
0
  6
Continuous
 62
     7
370
    25
100
AcDbCircle
 10
136.3914362981
 20
115.8905528846
 30
0.0
 40
90.0
  0
CIRCLE
  5
86
330
1F
100
AcDbEntity
  8
0
  6
Continuous
 62
     7
370
    25
100
AcDbCircle
 10
136.3914362981
 20
115.8905528846
 30
0.0
 40
100.0
  0
CIRCLE
  5
87
330
1F
100
AcDbEntity
  8
0
  6
Continuous
 62
     7
370
    25
100
AcDbCircle
 10
136.3914362981
 20
115.8905528846
 30
0.0
 40
112.5
  0
INSERT
  5
93
330
1F
100
AcDbEntity
  8
FORMAT
 62
     7
100
AcDbBlockReference
  2
SW_CENTERMARKSYMBOL_0
 10
136.3914362981
 20
115.8905528846
 30
0.0
  0
LINE
  5
94
330
1F
100
AcDbEntity
  8
0
  6
Continuous
 62
     7
370
    25
100
AcDbLine
 10
373.5295224572
 20
3.3905528846
 30
0.0
 11
409.5295224572
 21
3.3905528846
 31
0.0
  0
LINE
  5
95
330
1F
100
AcDbEntity
  8
0
  6
Continuous
 62
     7
370
    25
100
AcDbLine
 10
409.5295224572
 20
228.3905528846
 30
0.0
 11
373.5295224572
 21
228.3905528846
 31
0.0
  0
LINE
  5
96
330
1F
100
AcDbEntity
  8
0
  6
Continuous
 62
     7
370
    25
100
AcDbLine
 10
409.5295224572
 20
3.3905528846
 30
0.0
 11
419.9141378418
 21
15.8905528846
 31
0.0
  0
LINE
  5
97
330
1F
100
AcDbEntity
  8
0
  6
Continuous
 62
     7
370
    25
100
AcDbLine
 10
419.9141378418
 20
215.8905528846
 30
0.0
 11
409.5295224572
 21
228.3905528846
 31
0.0
  0
LINE
  5
98
330
1F
100
AcDbEntity
  8
0
  6
Continuous
 62
     7
370
    25
100
AcDbLine
 10
419.9141378418
 20
15.8905528846
 30
0.0
 11
455.9141378418
 21
15.8905528846
 31
0.0
  0
LINE
  5
99
330
1F
100
AcDbEntity
  8
0
  6
Continuous
 62
     7
370
    25
100
AcDbLine
 10
455.9141378418
 20
215.8905528846
 30
0.0
 11
419.9141378418
 21
215.8905528846
 31
0.0
  0
LINE
  5
9A
330
1F
100
AcDbEntity
  8
0
  6
Continuous
 62
     7
370
    25
100
AcDbLine
 10
455.9141378418
 20
15.8905528846
 30
0.0
 11
464.2218301495
 21
25.8905528846
 31
0.0
  0
LINE
  5
9B
330
1F
100
AcDbEntity
  8
0
  6
Continuous
 62
     7
370
    25
100
AcDbLine
 10
464.2218301495
 20
205.8905528846
 30
0.0
 11
455.9141378418
 21
215.8905528846
 31
0.0
  0
LINE
  5
9C
330
1F
100
AcDbEntity
  8
0
  6
Continuous
 62
     7
370
    25
100
AcDbLine
 10
464.2218301495
 20
25.8905528846
 30
0.0
 11
500.2218301495
 21
25.8905528846
 31
0.0
  0
LINE
  5
9D
330
1F
100
AcDbEntity
  8
0
  6
Continuous
 62
     7
370
    25
100
AcDbLine
 10
500.2218301495
 20
205.8905528846
 30
0.0
 11
464.2218301495
 21
205.8905528846
 31
0.0
  0
LINE
  5
9E
330
1F
100
AcDbEntity
  8
0
  6
Continuous
 62
     7
370
    25
100
AcDbLine
 10
500.2218301495
 20
25.8905528846
 30
0.0
 11
508.5295224572
 21
35.8905528846
 31
0.0
  0
LINE
  5
9F
330
1F
100
AcDbEntity
  8
0
  6
Continuous
 62
     7
370
    25
100
AcDbLine
 10
508.5295224572
 20
195.8905528846
 30
0.0
 11
500.2218301495
 21
205.8905528846
 31
0.0
  0
LINE
  5
A0
330
1F
100
AcDbEntity
  8
0
  6
Continuous
 62
     7
370
    25
100
AcDbLine
 10
508.5295224572
 20
35.8905528846
 30
0.0
 11
544.5295224572
 21
35.8905528846
 31
0.0
  0
LINE
  5
A1
330
1F
100
AcDbEntity
  8
0
  6
Continuous
 62
     7
370
    25
100
AcDbLine
 10
544.5295224572
 20
195.8905528846
 30
0.0
 11
508.5295224572
 21
195.8905528846
 31
0.0
  0
LINE
  5
A2
330
1F
100
AcDbEntity
  8
0
  6
Continuous
 62
     7
370
    25
100
AcDbLine
 10
409.5295224572
 20
115.8905528846
 30
0.0
 11
409.5295224572
 21
228.3905528846
 31
0.0
  0
LINE
  5
A3
330
1F
100
AcDbEntity
  8
0
  6
Continuous
 62
     7
370
    25
100
AcDbLine
 10
409.5295224572
 20
3.3905528846
 30
0.0
 11
409.5295224572
 21
115.8905528846
 31
0.0
  0
LINE
  5
A4
330
1F
100
AcDbEntity
  8
0
  6
Continuous
 62
     7
370
    25
100
AcDbLine
 10
373.5295224572
 20
115.8905528846
 30
0.0
 11
373.5295224572
 21
228.3905528846
 31
0.0
  0
LINE
  5
A5
330
1F
100
AcDbEntity
  8
0
  6
Continuous
 62
     7
370
    25
100
AcDbLine
 10
373.5295224572
 20
3.3905528846
 30
0.0
 11
373.5295224572
 21
115.8905528846
 31
0.0
  0
LINE
  5
A6
330
1F
100
AcDbEntity
  8
0
  6
Continuous
 62
     7
370
    25
100
AcDbLine
 10
419.9141378418
 20
115.8905528846
 30
0.0
 11
419.9141378418
 21
215.8905528846
 31
0.0
  0
LINE
  5
A7
330
1F
100
AcDbEntity
  8
0
  6
Continuous
 62
     7
370
    25
100
AcDbLine
 10
419.9141378418
 20
15.8905528846
 30
0.0
 11
419.9141378418
 21
115.8905528846
 31
0.0
  0
LINE
  5
A8
330
1F
100
AcDbEntity
  8
0
  6
Continuous
 62
     7
370
    25
100
AcDbLine
 10
455.9141378418
 20
115.8905528846
 30
0.0
 11
455.9141378418
 21
215.8905528846
 31
0.0
  0
LINE
  5
A9
330
1F
100
AcDbEntity
  8
0
  6
Continuous
 62
     7
370
    25
100
AcDbLine
 10
455.9141378418
 20
15.8905528846
 30
0.0
 11
455.9141378418
 21
115.8905528846
 31
0.0
  0
LINE
  5
AA
330
1F
100
AcDbEntity
  8
0
  6
Continuous
 62
     7
370
    25
100
AcDbLine
 10
464.2218301495
 20
115.8905528846
 30
0.0
 11
464.2218301495
 21
205.8905528846
 31
0.0
  0
LINE
  5
AB
330
1F
100
AcDbEntity
  8
0
  6
Continuous
 62
     7
370
    25
100
AcDbLine
 10
464.2218301495
 20
25.8905528846
 30
0.0
 11
464.2218301495
 21
115.8905528846
 31
0.0
  0
LINE
  5
AC
330
1F
100
AcDbEntity
  8
0
  6
Continuous
 62
     7
370
    25
100
AcDbLine
 10
500.2218301495
 20
115.8905528846
 30
0.0
 11
500.2218301495
 21
205.8905528846
 31
0.0
  0
LINE
  5
AD
330
1F
100
AcDbEntity
  8
0
  6
Continuous
 62
     7
370
    25
100
AcDbLine
 10
500.2218301495
 20
25.8905528846
 30
0.0
 11
500.2218301495
 21
115.8905528846
 31
0.0
  0
LINE
  5
AE
330
1F
100
AcDbEntity
  8
0
  6
Continuous
 62
     7
370
    25
100
AcDbLine
 10
508.5295224572
 20
115.8905528846
 30
0.0
 11
508.5295224572
 21
195.8905528846
 31
0.0
  0
LINE
  5
AF
330
1F
100
AcDbEntity
  8
0
  6
Continuous
 62
     7
370
    25
100
AcDbLine
 10
508.5295224572
 20
35.8905528846
 30
0.0
 11
508.5295224572
 21
115.8905528846
 31
0.0
  0
LINE
  5
B0
330
1F
100
AcDbEntity
  8
0
  6
Continuous
 62
     7
370
    25
100
AcDbLine
 10
544.5295224572
 20
115.8905528846
 30
0.0
 11
544.5295224572
 21
195.8905528846
 31
0.0
  0
LINE
  5
B1
330
1F
100
AcDbEntity
  8
0
  6
Continuous
 62
     7
370
    25
100
AcDbLine
 10
544.5295224572
 20
35.8905528846
 30
0.0
 11
544.5295224572
 21
115.8905528846
 31
0.0
  0
LINE
  5
B2
330
1F
100
AcDbEntity
  8
0
  6
Continuous
 62
     7
370
    25
100
AcDbLine
 10
-129.3844763421
 20
228.3905528846
 30
0.0
 11
-165.3844763421
 21
228.3905528846
 31
0.0
  0
LINE
  5
B3
330
1F
100
AcDbEntity
  8
0
  6
Continuous
 62
     7
370
    25
100
AcDbLine
 10
-165.3844763421
 20
3.3905528846
 30
0.0
 11
-129.3844763421
 21
3.3905528846
 31
0.0
  0
LINE
  5
B4
330
1F
100
AcDbEntity
  8
0
  6
Continuous
 62
     7
370
    25
100
AcDbLine
 10
-165.3844763421
 20
228.3905528846
 30
0.0
 11
-175.7690917268
 21
215.8905528846
 31
0.0
  0
LINE
  5
B5
330
1F
100
AcDbEntity
  8
0
  6
Continuous
 62
     7
370
    25
100
AcDbLine
 10
-175.7690917268
 20
15.8905528846
 30
0.0
 11
-165.3844763421
 21
3.3905528846
 31
0.0
  0
LINE
  5
B6
330
1F
100
AcDbEntity
  8
0
  6
Continuous
 62
     7
370
    25
100
AcDbLine
 10
-175.7690917268
 20
215.8905528846
 30
0.0
 11
-211.7690917268
 21
215.8905528846
 31
0.0
  0
LINE
  5
B7
330
1F
100
AcDbEntity
  8
0
  6
Continuous
 62
     7
370
    25
100
AcDbLine
 10
-211.7690917268
 20
15.8905528846
 30
0.0
 11
-175.7690917268
 21
15.8905528846
 31
0.0
  0
LINE
  5
B8
330
1F
100
AcDbEntity
  8
0
  6
Continuous
 62
     7
370
    25
100
AcDbLine
 10
-211.7690917268
 20
215.8905528846
 30
0.0
 11
-220.0767840344
 21
205.8905528846
 31
0.0
  0
LINE
  5
B9
330
1F
100
AcDbEntity
  8
0
  6
Continuous
 62
     7
370
    25
100
AcDbLine
 10
-220.0767840344
 20
25.8905528846
 30
0.0
 11
-211.7690917268
 21
15.8905528846
 31
0.0
  0
LINE
  5
BA
330
1F
100
AcDbEntity
  8
0
  6
Continuous
 62
     7
370
    25
100
AcDbLine
 10
-220.0767840344
 20
205.8905528846
 30
0.0
 11
-256.0767840344
 21
205.8905528846
 31
0.0
  0
LINE
  5
BB
330
1F
100
AcDbEntity
  8
0
  6
Continuous
 62
     7
370
    25
100
AcDbLine
 10
-256.0767840344
 20
25.8905528846
 30
0.0
 11
-220.0767840344
 21
25.8905528846
 31
0.0
  0
LINE
  5
BC
330
1F
100
AcDbEntity
  8
0
  6
Continuous
 62
     7
370
    25
100
AcDbLine
 10
-256.0767840344
 20
205.8905528846
 30
0.0
 11
-264.3844763421
 21
195.8905528846
 31
0.0
  0
LINE
  5
BD
330
1F
100
AcDbEntity
  8
0
  6
Continuous
 62
     7
370
    25
100
AcDbLine
 10
-264.3844763421
 20
35.8905528846
 30
0.0
 11
-256.0767840344
 21
25.8905528846
 31
0.0
  0
LINE
  5
BE
330
1F
100
AcDbEntity
  8
0
  6
Continuous
 62
     7
370
    25
100
AcDbLine
 10
-264.3844763421
 20
195.8905528846
 30
0.0
 11
-300.3844763421
 21
195.8905528846
 31
0.0
  0
LINE
  5
BF
330
1F
100
AcDbEntity
  8
0
  6
Continuous
 62
     7
370
    25
100
AcDbLine
 10
-300.3844763421
 20
35.8905528846
 30
0.0
 11
-264.3844763421
 21
35.8905528846
 31
0.0
  0
LINE
  5
C0
330
1F
100
AcDbEntity
  8
0
  6
Continuous
 62
     7
370
    25
100
AcDbLine
 10
-165.3844763421
 20
228.3905528846
 30
0.0
 11
-165.3844763421
 21
3.3905528846
 31
0.0
  0
LINE
  5
C1
330
1F
100
AcDbEntity
  8
0
  6
Continuous
 62
     7
370
    25
100
AcDbLine
 10
-129.3844763421
 20
228.3905528846
 30
0.0
 11
-129.3844763421
 21
3.3905528846
 31
0.0
  0
LINE
  5
C2
330
1F
100
AcDbEntity
  8
0
  6
Continuous
 62
     7
370
    25
100
AcDbLine
 10
-175.7690917268
 20
215.8905528846
 30
0.0
 11
-175.7690917268
 21
15.8905528846
 31
0.0
  0
LINE
  5
C3
330
1F
100
AcDbEntity
  8
0
  6
Continuous
 62
     7
370
    25
100
AcDbLine
 10
-211.7690917268
 20
215.8905528846
 30
0.0
 11
-211.7690917268
 21
15.8905528846
 31
0.0
  0
LINE
  5
C4
330
1F
100
AcDbEntity
  8
0
  6
Continuous
 62
     7
370
    25
100
AcDbLine
 10
-220.0767840344
 20
205.8905528846
 30
0.0
 11
-220.0767840344
 21
25.8905528846
 31
0.0
  0
LINE
  5
C5
330
1F
100
AcDbEntity
  8
0
  6
Continuous
 62
     7
370
    25
100
AcDbLine
 10
-256.0767840344
 20
205.8905528846
 30
0.0
 11
-256.0767840344
 21
25.8905528846
 31
0.0
  0
LINE
  5
C6
330
1F
100
AcDbEntity
  8
0
  6
Continuous
 62
     7
370
    25
100
AcDbLine
 10
-264.3844763421
 20
195.8905528846
 30
0.0
 11
-264.3844763421
 21
35.8905528846
 31
0.0
  0
LINE
  5
C7
330
1F
100
AcDbEntity
  8
0
  6
Continuous
 62
     7
370
    25
100
AcDbLine
 10
-300.3844763421
 20
195.8905528846
 30
0.0
 11
-300.3844763421
 21
35.8905528846
 31
0.0
  0
LINE
  5
C8
330
1F
100
AcDbEntity
  8
0
  6
Continuous
 62
     7
370
    25
100
AcDbLine
 10
248.8914362981
 20
325.6201441144
 30
0.0
 11
248.8914362981
 21
361.6201441144
 31
0.0
  0
LINE
  5
C9
330
1F
100
AcDbEntity
  8
0
  6
Continuous
 62
     7
370
    25
100
AcDbLine
 10
23.8914362981
 20
361.6201441144
 30
0.0
 11
23.8914362981
 21
325.6201441144
 31
0.0
  0
LINE
  5
CA
330
1F
100
AcDbEntity
  8
0
  6
Continuous
 62
     7
370
    25
100
AcDbLine
 10
248.8914362981
 20
361.6201441144
 30
0.0
 11
236.3914362981
 21
372.004759499
 31
0.0
  0
LINE
  5
CB
330
1F
100
AcDbEntity
  8
0
  6
Continuous
 62
     7
370
    25
100
AcDbLine
 10
36.3914362981
 20
372.004759499
 30
0.0
 11
23.8914362981
 21
361.6201441144
 31
0.0
  0
LINE
  5
CC
330
1F
100
AcDbEntity
  8
0
  6
Continuous
 62
     7
370
    25
100
AcDbLine
 10
236.3914362981
 20
372.004759499
 30
0.0
 11
236.3914362981
 21
408.004759499
 31
0.0
  0
LINE
  5
CD
330
1F
100
AcDbEntity
  8
0
  6
Continuous
 62
     7
370
    25
100
AcDbLine
 10
36.3914362981
 20
408.004759499
 30
0.0
 11
36.3914362981
 21
372.004759499
 31
0.0
  0
LINE
  5
CE
330
1F
100
AcDbEntity
  8
0
  6
Continuous
 62
     7
370
    25
100
AcDbLine
 10
236.3914362981
 20
408.004759499
 30
0.0
 11
226.3914362981
 21
416.3124518067
 31
0.0
  0
LINE
  5
CF
330
1F
100
AcDbEntity
  8
0
  6
Continuous
 62
     7
370
    25
100
AcDbLine
 10
46.3914362981
 20
416.3124518067
 30
0.0
 11
36.3914362981
 21
408.004759499
 31
0.0
  0
LINE
  5
D0
330
1F
100
AcDbEntity
  8
0
  6
Continuous
 62
     7
370
    25
100
AcDbLine
 10
226.3914362981
 20
416.3124518067
 30
0.0
 11
226.3914362981
 21
452.3124518067
 31
0.0
  0
LINE
  5
D1
330
1F
100
AcDbEntity
  8
0
  6
Continuous
 62
     7
370
    25
100
AcDbLine
 10
46.3914362981
 20
452.3124518067
 30
0.0
 11
46.3914362981
 21
416.3124518067
 31
0.0
  0
LINE
  5
D2
330
1F
100
AcDbEntity
  8
0
  6
Continuous
 62
     7
370
    25
100
AcDbLine
 10
226.3914362981
 20
452.3124518067
 30
0.0
 11
216.3914362981
 21
460.6201441144
 31
0.0
  0
LINE
  5
D3
330
1F
100
AcDbEntity
  8
0
  6
Continuous
 62
     7
370
    25
100
AcDbLine
 10
56.3914362981
 20
460.6201441144
 30
0.0
 11
46.3914362981
 21
452.3124518067
 31
0.0
  0
LINE
  5
D4
330
1F
100
AcDbEntity
  8
0
  6
Continuous
 62
     7
370
    25
100
AcDbLine
 10
216.3914362981
 20
460.6201441144
 30
0.0
 11
216.3914362981
 21
496.6201441144
 31
0.0
  0
LINE
  5
D5
330
1F
100
AcDbEntity
  8
0
  6
Continuous
 62
     7
370
    25
100
AcDbLine
 10
56.3914362981
 20
496.6201441144
 30
0.0
 11
56.3914362981
 21
460.6201441144
 31
0.0
  0
LINE
  5
D6
330
1F
100
AcDbEntity
  8
0
  6
Continuous
 62
     7
370
    25
100
AcDbLine
 10
248.8914362981
 20
361.6201441144
 30
0.0
 11
23.8914362981
 21
361.6201441144
 31
0.0
  0
LINE
  5
D7
330
1F
100
AcDbEntity
  8
0
  6
Continuous
 62
     7
370
    25
100
AcDbLine
 10
248.8914362981
 20
325.6201441144
 30
0.0
 11
23.8914362981
 21
325.6201441144
 31
0.0
  0
LINE
  5
D8
330
1F
100
AcDbEntity
  8
0
  6
Continuous
 62
     7
370
    25
100
AcDbLine
 10
236.3914362981
 20
372.004759499
 30
0.0
 11
36.3914362981
 21
372.004759499
 31
0.0
  0
LINE
  5
D9
330
1F
100
AcDbEntity
  8
0
  6
Continuous
 62
     7
370
    25
100
AcDbLine
 10
236.3914362981
 20
408.004759499
 30
0.0
 11
36.3914362981
 21
408.004759499
 31
0.0
  0
LINE
  5
DA
330
1F
100
AcDbEntity
  8
0
  6
Continuous
 62
     7
370
    25
100
AcDbLine
 10
226.3914362981
 20
416.3124518067
 30
0.0
 11
46.3914362981
 21
416.3124518067
 31
0.0
  0
LINE
  5
DB
330
1F
100
AcDbEntity
  8
0
  6
Continuous
 62
     7
370
    25
100
AcDbLine
 10
226.3914362981
 20
452.3124518067
 30
0.0
 11
46.3914362981
 21
452.3124518067
 31
0.0
  0
LINE
  5
DC
330
1F
100
AcDbEntity
  8
0
  6
Continuous
 62
     7
370
    25
100
AcDbLine
 10
216.3914362981
 20
460.6201441144
 30
0.0
 11
56.3914362981
 21
460.6201441144
 31
0.0
  0
LINE
  5
DD
330
1F
100
AcDbEntity
  8
0
  6
Continuous
 62
     7
370
    25
100
AcDbLine
 10
216.3914362981
 20
496.6201441144
 30
0.0
 11
56.3914362981
 21
496.6201441144
 31
0.0
  0
LINE
  5
DE
330
1F
100
AcDbEntity
  8
0
  6
Continuous
 62
     7
370
    25
100
AcDbLine
 10
446.0248020111
 20
-69.6478250579
 30
0.0
 11
420.5689578883
 21
-54.9524790451
 31
0.0
  0
LINE
  5
DF
330
1F
100
AcDbEntity
  8
0
  6
Continuous
 62
     7
370
    25
100
AcDbLine
 10
340.5754592775
 20
-193.520297026
 30
0.0
 11
366.0313034002
 21
-208.2156430388
 31
0.0
  0
LINE
  5
E0
330
1F
100
AcDbEntity
  8
0
  6
Continuous
 62
     7
370
    25
100
AcDbLine
 10
482.3546653637
 20
-79.0739161422
 30
0.0
 11
456.898821241
 21
-64.3785701294
 31
0.0
  0
LINE
  5
E1
330
1F
100
AcDbEntity
  8
0
  6
Continuous
 62
     7
370
    25
100
AcDbLine
 10
366.9061353038
 20
-220.2673653579
 30
0.0
 11
392.3619794265
 21
-234.9627113707
 31
0.0
  0
LINE
  5
E2
330
1F
100
AcDbEntity
  8
0
  6
Continuous
 62
     7
370
    25
100
AcDbLine
 10
518.6845287164
 20
-88.5000072265
 30
0.0
 11
493.2286845937
 21
-73.8046612137
 31
0.0
  0
LINE
  5
E3
330
1F
100
AcDbEntity
  8
0
  6
Continuous
 62
     7
370
    25
100
AcDbLine
 10
393.2368113301
 20
-247.0144336898
 30
0.0
 11
418.6926554528
 21
-261.7097797026
 31
0.0
  0
LINE
  5
E4
330
1F
100
AcDbEntity
  8
0
  6
Continuous
 62
     7
370
    25
100
AcDbLine
 10
557.7328968766
 20
-96.6087845786
 30
0.0
 11
532.2770527539
 21
-81.9134385658
 31
0.0
  0
LINE
  5
E5
330
1F
100
AcDbEntity
  8
0
  6
Continuous
 62
     7
370
    25
100
AcDbLine
 10
419.7861953323
 20
-276.7744326014
 30
0.0
 11
445.242039455
 21
-291.4697786142
 31
0.0
  0
LWPOLYLINE
  5
E6
330
1F
100
AcDbEntity
  8
0
  6
Continuous
 62
     7
370
    25
100
AcDbPolyline
 90
      114
 70
   128
 43
0.0
 10
324.003666088
 20
-156.8927125085
 10
324.0910911495
 20
-153.2119181689
 10
324.3530961082
 20
-149.4415621263
 10
324.7888711218
 20
-145.593298335
 10
325.3970692346
 20
-141.6790215578
 10
326.1758105413
 20
-137.7108306
 10
327.1226879969
 20
-133.7009909125
 10
328.2347748576
 20
-129.6618966798
 10
329.5086337266
 20
-125.6060325109
 10
330.9403271792
 20
-121.5459348494
 10
332.5254299329
 20
-117.4941532245
 10
334.2590425259
 20
-113.463211461
 10
336.1358064611
 20
-109.4655689689
 10
338.1499207688
 20
-105.5135822321
 10
340.2951599369
 20
-101.619466615
 10
342.5648931543
 20
-97.795258606
 10
344.9521048055
 20
-94.0527786127
 10
347.4494161562
 20
-90.4035944264
 10
350.04910816
 20
-86.8589854662
 10
352.7431453181
 20
-83.4299079154
 10
355.5232005159
 20
-80.1269608562
 10
358.3806807622
 20
-76.9603535085
 10
361.3067537492
 20
-73.9398736743
 10
364.292375153
 20
-71.0748574835
 10
367.328316589
 20
-68.3741605372
 10
370.4051941362
 20
-65.8461305347
 10
373.5134973424
 20
-63.498581472
 10
376.6436186205
 20
-61.3387694886
 10
379.7858829451
 20
-59.3733704396
 10
382.9305777571
 20
-57.6084592608
 10
386.0679829852
 20
-56.0494911916
 10
389.1884010895
 20
-54.7012849129
 10
392.2821870366
 20
-53.5680076531
 10
395.3397781113
 20
-52.6531623072
 10
398.351723475
 20
-51.9595766097
 10
401.308713377
 20
-51.4893943944
 10
404.201607931
 20
-51.2440689674
 10
407.0214653658
 20
-51.2243586156
 10
409.7595696636
 20
-51.4303242627
 10
412.407457501
 20
-51.8613292805
 10
414.9569444084
 20
-52.5160414573
 10
417.4001500679
 20
-53.3924371152
 10
419.7295226708
 20
-54.4878073655
 10
421.9378622598
 20
-55.7987664816
 10
424.0183429839
 20
-57.3212623638
 10
425.9645341963
 20
-59.0505890648
 10
427.7704203316
 20
-60.9814013347
 10
429.4304194992
 20
-63.1077311436
 10
430.9394007368
 20
-65.4230061277
 10
432.2926998699
 20
-67.9200699049
 10
433.4861339284
 20
-70.5912041941
 10
434.5160140761
 20
-73.4281526722
 10
435.3791570123
 20
-76.4221464941
 10
436.0728948118
 20
-79.5639313965
 10
436.5950831708
 20
-82.8437963023
 10
436.944108035
 20
-86.2516033371
 10
437.1188905885
 20
-89.7768191645
 10
437.1188905885
 20
-93.4085475445
 10
436.944108035
 20
-97.1355630128
 10
436.5950831708
 20
-100.9463455782
 10
436.0728948118
 20
-104.8291163301
 10
435.3791570123
 20
-108.7718738466
 10
434.5160140761
 20
-112.7624312903
 10
433.4861339284
 20
-116.7884540767
 10
432.2926998699
 20
-120.8374980002
 10
430.9394007368
 20
-124.897047698
 10
429.4304194992
 20
-128.9545553346
 10
427.7704203316
 20
-132.9974793865
 10
425.9645341963
 20
-137.0133234071
 10
424.0183429839
 20
-140.9896746527
 10
421.9378622598
 20
-144.9142424495
 10
419.7295226708
 20
-148.7748961832
 10
417.4001500679
 20
-152.5597027946
 10
414.9569444084
 20
-156.2569636631
 10
412.407457501
 20
-159.8552507674
 10
409.7595696636
 20
-163.3434420082
 10
407.0214653658
 20
-166.7107555864
 10
404.201607931
 20
-169.9467833285
 10
401.308713377
 20
-173.0415228584
 10
398.351723475
 20
-175.9854085134
 10
395.3397781113
 20
-178.7693409117
 10
392.2821870366
 20
-181.3847150779
 10
389.1884010895
 20
-183.8234470402
 10
386.0679829852
 20
-186.0779988179
 10
382.9305777571
 20
-188.1414017207
 10
379.7858829451
 20
-190.0072778884
 10
376.6436186205
 20
-191.6698600048
 10
373.5134973424
 20
-193.1240091238
 10
370.4051941362
 20
-194.3652305538
 10
367.328316589
 20
-195.3896877504
 10
364.292375153
 20
-196.1942141753
 10
361.3067537492
 20
-196.7763230834
 10
358.3806807622
 20
-197.1342152093
 10
355.5232005159
 20
-197.266784329
 10
352.7431453181
 20
-197.1736206789
 10
350.04910816
 20
-196.8550122226
 10
347.4494161562
 20
-196.3119437606
 10
344.9521048055
 20
-195.5460938863
 10
342.5648931543
 20
-194.5598297978
 10
340.2951599369
 20
-193.3561999809
 10
338.1499207688
 20
-191.9389247864
 10
336.1358064611
 20
-190.3123849306
 10
334.2590425259
 20
-188.4816079551
 10
332.5254299329
 20
-186.4522526866
 10
330.9403271792
 20
-184.2305917459
 10
329.5086337266
 20
-181.8234921596
 10
328.2347748576
 20
-179.2383941347
 10
327.1226879969
 20
-176.483288061
 10
326.1758105413
 20
-173.5666898134
 10
325.3970692346
 20
-170.4976144301
 10
324.7888711218
 20
-167.2855482471
 10
324.3530961082
 20
-163.9404195769
 10
324.0910911495
 20
-160.4725680205
 10
324.003666088
 20
-156.8927125085
  0
LWPOLYLINE
  5
E7
330
1F
100
AcDbEntity
  8
0
  6
Continuous
 62
     7
370
    25
100
AcDbPolyline
 90
       58
 70
   128
 43
0.0
 10
446.0248020111
 20
-69.6478250579
 10
447.3937063825
 20
-70.4941124944
 10
449.4741871066
 20
-72.0166083766
 10
451.420378319
 20
-73.7459350776
 10
453.2262644543
 20
-75.6767473476
 10
454.8862636219
 20
-77.8030771564
 10
456.3952448595
 20
-80.1183521405
 10
457.7485439926
 20
-82.6154159177
 10
458.9419780511
 20
-85.2865502069
 10
459.9718581988
 20
-88.123498685
 10
460.835001135
 20
-91.1174925069
 10
461.5287389345
 20
-94.2592774093
 10
462.0509272935
 20
-97.5391423151
 10
462.3999521577
 20
-100.9469493499
 10
462.5747347112
 20
-104.4721651773
 10
462.5747347112
 20
-108.1038935573
 10
462.3999521577
 20
-111.8309090256
 10
462.0509272935
 20
-115.641691591
 10
461.5287389345
 20
-119.5244623429
 10
460.835001135
 20
-123.4672198594
 10
459.9718581988
 20
-127.4577773031
 10
458.9419780511
 20
-131.4838000895
 10
457.7485439926
 20
-135.532844013
 10
456.3952448595
 20
-139.5923937108
 10
454.8862636219
 20
-143.6499013474
 10
453.2262644543
 20
-147.6928253993
 10
451.420378319
 20
-151.7086694199
 10
449.4741871066
 20
-155.6850206655
 10
447.3937063825
 20
-159.6095884623
 10
445.1853667935
 20
-163.470242196
 10
442.8559941906
 20
-167.2550488074
 10
440.4127885311
 20
-170.9523096759
 10
437.8633016238
 20
-174.5505967802
 10
435.2154137864
 20
-178.038788021
 10
432.4773094885
 20
-181.4061015992
 10
429.6574520537
 20
-184.6421293413
 10
426.7645574997
 20
-187.7368688712
 10
423.8075675977
 20
-190.6807545262
 10
420.795622234
 20
-193.4646869245
 10
417.7380311593
 20
-196.0800610907
 10
414.6442452122
 20
-198.518793053
 10
411.5238271079
 20
-200.7733448307
 10
408.3864218798
 20
-202.8367477335
 10
405.2417270678
 20
-204.7026239012
 10
402.0994627432
 20
-206.3652060176
 10
398.9693414651
 20
-207.8193551366
 10
395.8610382589
 20
-209.0605765666
 10
392.7841607117
 20
-210.0850337633
 10
389.7482192757
 20
-210.8895601881
 10
386.7625978719
 20
-211.4716690962
 10
383.8365248849
 20
-211.8295612221
 10
380.9790446387
 20
-211.9621303418
 10
378.1989894408
 20
-211.8689666917
 10
375.5049522828
 20
-211.5503582354
 10
372.9052602789
 20
-211.0072897734
 10
370.4079489282
 20
-210.2414398991
 10
368.020737277
 20
-209.2551758106
 10
366.0313034002
 20
-208.2156430388
  0
LWPOLYLINE
  5
E8
330
1F
100
AcDbEntity
  8
0
  6
Continuous
 62
     7
370
    25
100
AcDbPolyline
 90
      107
 70
   128
 43
0.0
 10
330.7211805092
 20
-153.0147739773
 10
330.8087322864
 20
-149.5539778892
 10
331.0710800889
 20
-146.0042528434
 10
331.5073024107
 20
-142.3780673786
 10
332.1158670048
 20
-138.6881586034
 10
332.8946362661
 20
-134.947487457
 10
333.8408747389
 20
-131.1691931832
 10
334.9512587262
 20
-127.3665471785
 10
336.2218879638
 20
-123.5529063757
 10
337.64829932
 20
-119.7416663271
 10
339.2254824731
 20
-115.9462141524
 10
340.9478975095
 20
-112.1798815159
 10
342.8094943838
 20
-108.4558977982
 10
344.8037341689
 20
-104.787343628
 10
346.923612025
 20
-101.1871049357
 10
349.1616818036
 20
-97.6678276908
 10
351.5100822032
 20
-94.2418734832
 10
353.9605643816
 20
-90.9212761019
 10
356.5045209308
 20
-87.7176992663
 10
359.1330161107
 20
-84.6423956569
 10
361.8368172361
 20
-81.7061673897
 10
364.6064271068
 20
-78.9193280737
 10
367.4321173673
 20
-76.2916665836
 10
370.3039626775
 20
-73.8324126762
 10
373.2118755758
 20
-71.5502045706
 10
376.1456419123
 20
-69.4530586059
 10
379.0949567257
 20
-67.5483410839
 10
382.0494604401
 20
-65.8427423942
 10
384.9987752535
 20
-64.3422535146
 10
387.93254159
 20
-63.0521449669
 10
390.8404544883
 20
-61.9769483045
 10
393.7122997985
 20
-61.1204401948
 10
396.537990059
 20
-60.4856291538
 10
399.3075999297
 20
-60.0747449784
 10
402.0114010551
 20
-59.8892309144
 10
404.639896235
 20
-59.9297385866
 10
407.1838527842
 20
-60.1961257103
 10
409.6343349626
 20
-60.6874565911
 10
411.9827353622
 20
-61.4020054112
 10
414.2208051408
 20
-62.3372622921
 10
416.3406829969
 20
-63.4899421096
 10
418.334922782
 20
-64.8559960339
 10
420.1965196563
 20
-66.4306257509
 10
421.9189346927
 20
-68.2083003161
 10
423.4961178457
 20
-70.1827755828
 10
424.922529202
 20
-72.3471161347
 10
426.1931584396
 20
-74.6937196467
 10
427.3035424269
 20
-77.2143435882
 10
428.2497808997
 20
-79.9001341758
 10
429.028550161
 20
-82.7416574721
 10
429.6371147551
 20
-85.7289325229
 10
430.0733370769
 20
-88.8514664155
 10
430.3356848794
 20
-92.0982911359
 10
430.4232366565
 20
-95.4580020938
 10
430.3356848794
 20
-98.9187981819
 10
430.0733370769
 20
-102.4685232277
 10
429.6371147551
 20
-106.0947086926
 10
429.028550161
 20
-109.7846174678
 10
428.2497808997
 20
-113.5252886142
 10
427.3035424269
 20
-117.303582888
 10
426.1931584396
 20
-121.1062288926
 10
424.922529202
 20
-124.9198696955
 10
423.4961178457
 20
-128.7311097441
 10
421.9189346927
 20
-132.5265619187
 10
420.1965196563
 20
-136.2928945553
 10
418.334922782
 20
-140.0168782729
 10
416.3406829969
 20
-143.6854324431
 10
414.2208051408
 20
-147.2856711355
 10
411.9827353622
 20
-150.8049483803
 10
409.6343349626
 20
-154.2309025879
 10
407.1838527842
 20
-157.5514999693
 10
404.639896235
 20
-160.7550768049
 10
402.0114010551
 20
-163.8303804143
 10
399.3075999297
 20
-166.7666086814
 10
396.537990059
 20
-169.5534479974
 10
393.7122997985
 20
-172.1811094875
 10
390.8404544883
 20
-174.6403633949
 10
387.93254159
 20
-176.9225715006
 10
384.9987752535
 20
-179.0197174653
 10
382.0494604401
 20
-180.9244349873
 10
379.0949567257
 20
-182.6300336769
 10
376.1456419123
 20
-184.1305225565
 10
373.2118755758
 20
-185.4206311042
 10
370.3039626775
 20
-186.4958277667
 10
367.4321173673
 20
-187.3523358764
 10
364.6064271068
 20
-187.9871469174
 10
361.8368172361
 20
-188.3980310927
 10
359.1330161107
 20
-188.5835451568
 10
356.5045209308
 20
-188.5430374846
 10
353.9605643816
 20
-188.2766503609
 10
351.5100822032
 20
-187.7853194801
 10
349.1616818036
 20
-187.0707706599
 10
346.923612025
 20
-186.1355137791
 10
344.8037341689
 20
-184.9828339616
 10
342.8094943838
 20
-183.6167800372
 10
340.9478975095
 20
-182.0421503203
 10
339.2254824731
 20
-180.2644757551
 10
337.64829932
 20
-178.2900004883
 10
336.2218879638
 20
-176.1256599364
 10
334.9512587262
 20
-173.7790564245
 10
333.8408747389
 20
-171.258432483
 10
332.8946362661
 20
-168.5726418953
 10
332.1158670048
 20
-165.7311185991
 10
331.5073024107
 20
-162.7438435483
 10
331.0710800889
 20
-159.6213096556
 10
330.8087322864
 20
-156.3744849352
 10
330.7211805092
 20
-153.0147739773
  0
LWPOLYLINE
  5
E9
330
1F
100
AcDbEntity
  8
0
  6
Continuous
 62
     7
370
    25
100
AcDbPolyline
 90
       81
 70
   128
 43
0.0
 10
431.2820242163
 20
-61.137000595
 10
431.5681993726
 20
-61.0783072064
 10
434.7088749279
 20
-60.5495284503
 10
437.7870397352
 20
-60.2448850074
 10
440.7942567588
 20
-60.1652118841
 10
443.7222834258
 20
-60.3107274589
 10
446.5630942186
 20
-60.6810328836
 10
449.3089026724
 20
-61.275113177
 10
451.9521827169
 20
-62.0913400062
 10
454.4856893054
 20
-63.1274761502
 10
456.9024782724
 20
-64.3806816318
 10
459.1959253673
 20
-65.847521502
 10
461.359744411
 20
-67.5239752545
 10
463.388004526
 20
-69.4054478463
 10
465.2751463922
 20
-71.4867822916
 10
467.015997485
 20
-73.7622737976
 10
468.6057862525
 20
-76.2256854
 10
470.0401551943
 20
-78.870265059
 10
471.3151728047
 20
-81.6887641654
 10
472.4273443491
 20
-84.6734574093
 10
473.3736214427
 20
-87.8161639538
 10
474.1514104056
 20
-91.1082698588
 10
474.7585793724
 20
-94.5407516908
 10
475.1934641352
 20
-98.1042012557
 10
475.454872705
 20
-101.7888513859
 10
475.5420885792
 20
-105.5846027116
 10
475.454872705
 20
-109.4810513422
 10
475.1934641352
 20
-113.4675173828
 10
474.7585793724
 20
-117.5330742072
 10
474.1514104056
 20
-121.6665784066
 10
473.3736214427
 20
-125.8567003333
 10
472.4273443491
 20
-130.0919551545
 10
471.3151728047
 20
-134.360734331
 10
470.0401551943
 20
-138.6513374359
 10
468.6057862525
 20
-142.9520042242
 10
467.015997485
 20
-147.2509468673
 10
465.2751463922
 20
-151.5363822621
 10
463.388004526
 20
-155.7965643281
 10
461.359744411
 20
-160.0198162024
 10
459.1959253673
 20
-164.1945622453
 10
456.9024782724
 20
-168.3093597678
 10
454.4856893054
 20
-172.3529303961
 10
451.9521827169
 20
-176.3141909841
 10
449.3089026724
 20
-180.182283992
 10
446.5630942186
 20
-183.9466072455
 10
443.7222834258
 20
-187.5968429964
 10
440.7942567588
 20
-191.1229862022
 10
437.7870397352
 20
-194.5153719495
 10
434.7088749279
 20
-197.7647019446
 10
431.5681993726
 20
-200.86207
 10
428.3736214427
 20
-203.7989864452
 10
425.1338972543
 20
-206.5674013962
 10
421.8579066661
 20
-209.1597268202
 10
418.5546289407
 20
-211.5688573333
 10
415.2331181327
 20
-213.7881896762
 10
411.9024782724
 20
-215.8116408134
 10
408.5718384121
 20
-217.6336646057
 10
405.2503276041
 20
-219.2492670128
 10
401.9470498787
 20
-220.6540197807
 10
398.6710592905
 20
-221.8440725796
 10
395.4313351021
 20
-222.8161635576
 10
392.2367571722
 20
-223.5676282809
 10
389.0960816169
 20
-224.096407037
 10
386.0179168096
 20
-224.4010504799
 10
383.010699786
 20
-224.4807236032
 10
380.082673119
 20
-224.3352080284
 10
377.2418623262
 20
-223.9649026037
 10
374.4960538724
 20
-223.3708223103
 10
371.8527738279
 20
-222.5545954811
 10
369.3192672394
 20
-221.5184593371
 10
366.9024782724
 20
-220.2652538555
 10
364.6090311775
 20
-218.7984139853
 10
362.4452121338
 20
-217.1219602328
 10
360.4169520188
 20
-215.240487641
 10
358.5298101526
 20
-213.1591531957
 10
356.7889590598
 20
-210.8836616897
 10
355.1991702922
 20
-208.4202500873
 10
353.7648013505
 20
-205.7756704283
 10
352.4897837401
 20
-202.9571713219
 10
351.3776121956
 20
-199.972478078
 10
351.2885256054
 20
-199.7048185759
  0
LWPOLYLINE
  5
EA
330
1F
100
AcDbEntity
  8
0
  6
Continuous
 62
     7
370
    25
100
AcDbPolyline
 90
       35
 70
   128
 43
0.0
 10
357.706783823
 20
-168.5932311736
 10
357.7943356001
 20
-165.1324350855
 10
358.0566834026
 20
-161.5827100397
 10
358.4929057244
 20
-157.9565245748
 10
359.1014703186
 20
-154.2666157996
 10
359.8802395798
 20
-150.5259446532
 10
360.8264780526
 20
-146.7476503794
 10
361.93686204
 20
-142.9450043747
 10
363.2074912775
 20
-139.1313635719
 10
364.6339026338
 20
-135.3201235233
 10
366.2110857868
 20
-131.5246713487
 10
367.9335008233
 20
-127.7583387121
 10
369.7950976975
 20
-124.0343549944
 10
371.7893374827
 20
-120.3658008243
 10
373.9092153387
 20
-116.7655621319
 10
376.1472851174
 20
-113.2462848871
 10
378.4956855169
 20
-109.8203306794
 10
380.9461676953
 20
-106.4997332981
 10
383.4901242446
 20
-103.2961564625
 10
386.1186194244
 20
-100.2208528531
 10
388.8224205498
 20
-97.2846245859
 10
391.5920304206
 20
-94.4977852699
 10
394.4177206811
 20
-91.8701237798
 10
397.2895659912
 20
-89.4108698725
 10
400.1974788896
 20
-87.1286617668
 10
403.1312452261
 20
-85.0315158021
 10
406.0805600394
 20
-83.1267982801
 10
409.0350637538
 20
-81.4211995905
 10
411.9843785672
 20
-79.9207107108
 10
414.9181449037
 20
-78.6306021631
 10
417.8260578021
 20
-77.5554055007
 10
420.6979031122
 20
-76.698897391
 10
423.5235933727
 20
-76.06408635
 10
426.2932032435
 20
-75.6532021747
 10
426.6282413574
 20
-75.6183340328
  0
ARC
  5
EB
330
1F
100
AcDbEntity
  8
0
  6
Continuous
 62
     7
370
    25
100
AcDbCircle
 10
406.5115643732
 20
-169.5404897782
 30
0.0
 40
48.81397242002593
100
AcDbArc
 50
178.8880780567
 51
202.7697438038
  0
LWPOLYLINE
  5
EC
330
1F
100
AcDbEntity
  8
0
  6
Continuous
 62
     7
370
    25
100
AcDbPolyline
 90
       62
 70
   128
 43
0.0
 10
482.3546653637
 20
-79.0739161422
 10
482.3583223951
 20
-79.0760276446
 10
484.65176949
 20
-80.5428675148
 10
486.8155885337
 20
-82.2193212673
 10
488.8438486487
 20
-84.1007938591
 10
490.7309905149
 20
-86.1821283044
 10
492.4718416077
 20
-88.4576198104
 10
494.0616303753
 20
-90.9210314128
 10
495.495999317
 20
-93.5656110718
 10
496.7710169274
 20
-96.3841101783
 10
497.8831884719
 20
-99.3688034221
 10
498.8294655654
 20
-102.5115099666
 10
499.6072545283
 20
-105.8036158716
 10
500.2144234951
 20
-109.2360977036
 10
500.6493082579
 20
-112.7995472685
 10
500.9107168277
 20
-116.4841973988
 10
500.9979327019
 20
-120.2799487244
 10
500.9107168277
 20
-124.176397355
 10
500.6493082579
 20
-128.1628633956
 10
500.2144234951
 20
-132.22842022
 10
499.6072545283
 20
-136.3619244194
 10
498.8294655654
 20
-140.5520463461
 10
497.8831884719
 20
-144.7873011673
 10
496.7710169274
 20
-149.0560803439
 10
495.495999317
 20
-153.3466834487
 10
494.0616303753
 20
-157.647350237
 10
492.4718416077
 20
-161.9462928801
 10
490.7309905149
 20
-166.2317282749
 10
488.8438486487
 20
-170.4919103409
 10
486.8155885337
 20
-174.7151622153
 10
484.65176949
 20
-178.8899082581
 10
482.3583223951
 20
-183.0047057806
 10
479.9415334281
 20
-187.0482764089
 10
477.4080268396
 20
-191.0095369969
 10
474.7647467951
 20
-194.8776300048
 10
472.0189383413
 20
-198.6419532583
 10
469.1781275485
 20
-202.2921890092
 10
466.2501008815
 20
-205.818332215
 10
463.2428838579
 20
-209.2107179623
 10
460.1647190506
 20
-212.4600479574
 10
457.0240434953
 20
-215.5574160129
 10
453.8294655654
 20
-218.494332458
 10
450.589741377
 20
-221.262747409
 10
447.3137507888
 20
-223.855072833
 10
444.0104730634
 20
-226.2642033461
 10
440.6889622554
 20
-228.483535689
 10
437.3583223951
 20
-230.5069868262
 10
434.0276825348
 20
-232.3290106186
 10
430.7061717268
 20
-233.9446130256
 10
427.4028940014
 20
-235.3493657935
 10
424.1269034132
 20
-236.5394185924
 10
420.8871792248
 20
-237.5115095704
 10
417.6926012949
 20
-238.2629742937
 10
414.5519257396
 20
-238.7917530498
 10
411.4737609323
 20
-239.0963964927
 10
408.4665439087
 20
-239.176069616
 10
405.5385172417
 20
-239.0305540413
 10
402.6977064489
 20
-238.6602486165
 10
399.9518979951
 20
-238.0661683231
 10
397.3086179506
 20
-237.2499414939
 10
394.7751113621
 20
-236.2138053499
 10
392.3619794265
 20
-234.9627113707
  0
ARC
  5
ED
330
1F
100
AcDbEntity
  8
0
  6
Continuous
 62
     7
370
    25
100
AcDbCircle
 10
485.800867326
 20
-184.9835996872
 30
0.0
 40
130.2170326784029
100
AcDbArc
 50
132.4759658304
 51
167.5294107023
  0
LWPOLYLINE
  5
EE
330
1F
100
AcDbEntity
  8
0
  6
Continuous
 62
     7
370
    25
100
AcDbPolyline
 90
       83
 70
   128
 43
0.0
 10
466.4328251756
 20
-69.8824334478
 10
469.0662595394
 20
-69.4865380099
 10
472.3151379257
 20
-69.192468219
 10
475.4917129083
 20
-69.1251784595
 10
478.5880870212
 20
-69.2848360242
 10
481.5965621906
 20
-69.6710439793
 10
484.5096588731
 20
-70.282842151
 10
487.3201346514
 20
-71.1187095127
 10
490.0210022399
 20
-72.1765679663
 10
492.6055468562
 20
-73.4537875091
 10
495.0673429151
 20
-74.9471927721
 10
497.4002700039
 20
-76.6530709144
 10
499.598528098
 20
-78.5671808543
 10
501.6566519817
 20
-80.6847638127
 10
503.5695248346
 20
-83.0005551449
 10
505.3323909533
 20
-85.5087974288
 10
506.9408675751
 20
-88.2032547787
 10
508.3909557735
 20
-91.0772283491
 10
509.6790504008
 20
-94.123572989
 10
510.8019490508
 20
-97.3347150056
 10
511.7568600205
 20
-100.7026709938
 10
512.5414092509
 20
-104.2190676845
 10
513.1536462289
 20
-107.8751627613
 10
513.5920488369
 20
-111.6618665959
 10
513.855527137
 20
-115.569764846
 10
513.9434260805
 20
-119.5891418606
 10
513.855527137
 20
-123.7100048353
 10
513.5920488369
 20
-127.9221086554
 10
513.1536462289
 20
-132.2149813671
 10
512.5414092509
 20
-136.5779502125
 10
511.7568600205
 20
-141.0001681636
 10
510.8019490508
 20
-145.4706408898
 10
509.6790504008
 20
-149.9782540915
 10
508.3909557735
 20
-154.5118011321
 10
506.9408675751
 20
-159.0600108993
 10
505.3323909533
 20
-163.611575827
 10
503.5695248346
 20
-168.1551800076
 10
501.6566519817
 20
-172.6795273253
 10
499.598528098
 20
-177.1733695397
 10
497.4002700039
 20
-181.6255342511
 10
495.0673429151
 20
-186.0249526765
 10
492.6055468562
 20
-190.3606871684
 10
490.0210022399
 20
-194.6219584079
 10
487.3201346514
 20
-198.7981722031
 10
484.5096588731
 20
-202.8789458287
 10
481.5965621906
 20
-206.8541338382
 10
478.5880870212
 20
-210.7138532881
 10
475.4917129083
 20
-214.4485083077
 10
472.3151379257
 20
-218.048813956
 10
469.0662595394
 20
-221.5058193061
 10
465.7531549729
 20
-224.8109296979
 10
462.3840611263
 20
-227.9559281062
 10
458.9673540975
 20
-230.9329955694
 10
455.5115283588
 20
-233.7347306288
 10
452.0251756373
 20
-236.3541677295
 10
448.5169635553
 20
-238.7847945382
 10
444.9956140807
 20
-241.0205681337
 10
441.4698818431
 20
-243.0559300306
 10
437.9485323685
 20
-244.8858199984
 10
434.4403202865
 20
-246.5056886424
 10
430.953967565
 20
-247.9115087138
 10
427.4981418262
 20
-249.0997851226
 10
424.0814347975
 20
-250.0675636264
 10
420.7123409509
 20
-250.8124381752
 10
417.3992363844
 20
-251.3325568935
 10
414.1503579981
 20
-251.6266266844
 10
410.9737830155
 20
-251.693916444
 10
407.8774089026
 20
-251.5342588793
 10
404.8689337332
 20
-251.1480509241
 10
401.9558370507
 20
-250.5362527524
 10
399.1453612724
 20
-249.7003853908
 10
396.4444936839
 20
-248.6425269371
 10
393.8599490676
 20
-247.3653073943
 10
391.3981530087
 20
-245.8719021314
 10
389.0652259199
 20
-244.166023989
 10
386.8669678257
 20
-242.2519140492
 10
384.8088439421
 20
-240.1343310907
 10
382.8959710892
 20
-237.8185397585
 10
381.1331049704
 20
-235.3102974747
 10
379.5246283487
 20
-232.6158401248
 10
378.0745401503
 20
-229.7418665543
 10
376.786445523
 20
-226.6955219144
 10
376.4401392384
 20
-225.7712286763
  0
LWPOLYLINE
  5
EF
330
1F
100
AcDbEntity
  8
0
  6
Continuous
 62
     7
370
    25
100
AcDbPolyline
 90
       25
 70
   128
 43
0.0
 10
384.3452114596
 20
-179.4592921489
 10
384.3533267362
 20
-179.3993072155
 10
384.9669457507
 20
-175.482777208
 10
385.7525695315
 20
-171.5122857667
 10
386.7077262156
 20
-167.5003255268
 10
387.8294105266
 20
-163.4595195993
 10
389.1140932307
 20
-159.4025818548
 10
390.5577322408
 20
-155.3422769203
 10
392.1557853346
 20
-151.2913800172
 10
393.9032244457
 20
-147.2626367659
 10
395.7945514842
 20
-143.2687230831
 10
397.8238156355
 20
-139.322205299
 10
399.9846320839
 20
-135.4355006186
 10
402.2702021014
 20
-131.6208380526
 10
404.6733344392
 20
-127.8902199408
 10
407.1864679537
 20
-124.2553841881
 10
409.8016953973
 20
-120.7277673324
 10
412.5107882968
 20
-117.3184685615
 10
415.3052228437
 20
-114.0382147905
 10
418.1762067131
 20
-110.8973269116
 10
421.1147067276
 20
-107.9056873198
 10
424.111477279
 20
-105.0727088203
 10
427.1570894184
 20
-102.4073050114
 10
430.2419605232
 20
-99.9178622396
 10
430.2808632442
 20
-99.8877876409
  0
LWPOLYLINE
  5
F0
330
1F
100
AcDbEntity
  8
0
  6
Continuous
 62
     7
370
    25
100
AcDbPolyline
 90
       65
 70
   128
 43
0.0
 10
518.6845287164
 20
-88.5000072265
 10
520.5231870378
 20
-89.6425387849
 10
522.8561141266
 20
-91.3484169272
 10
525.0543722208
 20
-93.2625268671
 10
527.1124961044
 20
-95.3801098255
 10
529.0253689573
 20
-97.6959011578
 10
530.788235076
 20
-100.2041434416
 10
532.3967116978
 20
-102.8986007915
 10
533.8467998962
 20
-105.7725743619
 10
535.1348945235
 20
-108.8189190018
 10
536.2577931735
 20
-112.0300610184
 10
537.2127041432
 20
-115.3980170066
 10
537.9972533736
 20
-118.9144136973
 10
538.6094903516
 20
-122.5705087741
 10
539.0478929596
 20
-126.3572126087
 10
539.3113712597
 20
-130.2651108588
 10
539.3992702033
 20
-134.2844878734
 10
539.3113712597
 20
-138.4053508481
 10
539.0478929596
 20
-142.6174546682
 10
538.6094903516
 20
-146.9103273799
 10
537.9972533736
 20
-151.2732962253
 10
537.2127041432
 20
-155.6955141764
 10
536.2577931735
 20
-160.1659869026
 10
535.1348945235
 20
-164.6736001043
 10
533.8467998962
 20
-169.2071471449
 10
532.3967116978
 20
-173.7553569121
 10
530.788235076
 20
-178.3069218398
 10
529.0253689573
 20
-182.8505260204
 10
527.1124961044
 20
-187.3748733381
 10
525.0543722208
 20
-191.8687155525
 10
522.8561141266
 20
-196.3208802639
 10
520.5231870378
 20
-200.7202986893
 10
518.0613909789
 20
-205.0560331813
 10
515.4768463626
 20
-209.3173044207
 10
512.7759787741
 20
-213.4935182159
 10
509.9655029958
 20
-217.5742918415
 10
507.0524063133
 20
-221.549479851
 10
504.0439311439
 20
-225.4091993009
 10
500.947557031
 20
-229.1438543205
 10
497.7709820484
 20
-232.7441599689
 10
494.5221036621
 20
-236.2011653189
 10
491.2089990956
 20
-239.5062757107
 10
487.839905249
 20
-242.651274119
 10
484.4231982203
 20
-245.6283415822
 10
480.9673724815
 20
-248.4300766416
 10
477.48101976
 20
-251.0495137423
 10
473.972807678
 20
-253.4801405511
 10
470.4514582034
 20
-255.7159141465
 10
466.9257259658
 20
-257.7512760434
 10
463.4043764912
 20
-259.5811660112
 10
459.8961644092
 20
-261.2010346552
 10
456.4098116877
 20
-262.6068547267
 10
452.953985949
 20
-263.7951311354
 10
449.5372789202
 20
-264.7629096392
 10
446.1681850736
 20
-265.507784188
 10
442.8550805071
 20
-266.0279029064
 10
439.6062021208
 20
-266.3219726972
 10
436.4296271382
 20
-266.3892624568
 10
433.3332530253
 20
-266.2296048921
 10
430.3247778559
 20
-265.8433969369
 10
427.4116811734
 20
-265.2315987652
 10
424.6012053951
 20
-264.3957314036
 10
421.9003378066
 20
-263.3378729499
 10
419.3157931903
 20
-262.0606534071
 10
418.6926554528
 20
-261.7097797026
  0
LWPOLYLINE
  5
F1
330
1F
100
AcDbEntity
  8
0
  6
Continuous
 62
     7
370
    25
100
AcDbPolyline
 90
       89
 70
   128
 43
0.0
 10
500.2560564729
 20
-77.8614766478
 10
503.4337941877
 20
-77.2861811088
 10
506.9041418772
 20
-76.8607575399
 10
510.3066250723
 20
-76.6606142382
 10
513.6337643765
 20
-76.686191162
 10
516.8782460154
 20
-76.9374320876
 10
520.0329379144
 20
-77.4137847331
 10
523.090905376
 20
-78.114201972
 10
526.045426324
 20
-79.037144135
 10
528.8900060801
 20
-80.1805823951
 10
531.6183916408
 20
-81.5420032268
 10
534.2245854223
 20
-83.1184139316
 10
536.7028584452
 20
-84.9063492167
 10
539.0477629275
 20
-86.9018788123
 10
541.2541442602
 20
-89.1006161113
 10
543.3171523384
 20
-91.4977278118
 10
545.2322522224
 20
-94.0879445421
 10
546.9952341073
 20
-96.8655724438
 10
548.602222576
 20
-99.8245056878
 10
550.0496851193
 20
-102.9582398966
 10
551.3344399003
 20
-106.2598864425
 10
552.4536627492
 20
-109.7221875897
 10
553.4048933712
 20
-113.337532449
 10
554.1860407551
 20
-117.0979737075
 10
554.7953877693
 20
-120.9952450995
 10
555.2315949368
 20
-125.0207795764
 10
555.4937033796
 20
-129.16572814
 10
555.5811369266
 20
-133.4209792936
 10
555.4937033796
 20
-137.7771790717
 10
555.2315949368
 20
-142.2247516018
 10
554.7953877693
 20
-146.7539201542
 10
554.1860407551
 20
-151.3547286335
 10
553.4048933712
 20
-156.0170634642
 10
552.4536627492
 20
-160.7306758223
 10
551.3344399003
 20
-165.4852041651
 10
550.0496851193
 20
-170.2701970072
 10
548.602222576
 20
-175.075135896
 10
546.9952341072
 20
-179.8894585329
 10
545.2322522224
 20
-184.702581992
 10
543.3171523384
 20
-189.5039259833
 10
541.2541442602
 20
-194.2829361107
 10
539.0477629275
 20
-199.0291070728
 10
536.7028584452
 20
-203.7320057556
 10
534.2245854223
 20
-208.3812941674
 10
531.6183916408
 20
-212.966752163
 10
528.8900060801
 20
-217.4782999107
 10
526.045426324
 20
-221.9060200493
 10
523.090905376
 20
-226.2401794891
 10
520.0329379144
 20
-230.471250807
 10
516.8782460154
 20
-234.5899331899
 10
513.6337643765
 20
-238.5871728801
 10
510.3066250723
 20
-242.4541830773
 10
506.9041418772
 20
-246.1824632537
 10
503.4337941877
 20
-249.7638178405
 10
499.9032105812
 20
-253.1903742429
 10
496.3201520466
 20
-256.4546001464
 10
492.6924949243
 20
-259.5493200739
 10
489.0282135919
 20
-262.4677311595
 10
485.3353629351
 20
-265.2034181022
 10
481.622060641
 20
-267.7503672683
 10
477.896469354
 20
-270.1029799108
 10
474.1667787322
 20
-272.2560844766
 10
470.4411874452
 20
-274.2049479746
 10
466.7278851511
 20
-275.9452863798
 10
463.0350344942
 20
-277.4732740506
 10
459.3707531618
 20
-278.7855521387
 10
455.7430960395
 20
-279.8792359719
 10
452.160037505
 20
-280.7519213958
 10
448.6294538985
 20
-281.4016900584
 10
445.159106209
 20
-281.8271136273
 10
441.7566230139
 20
-282.027256929
 10
438.4294837097
 20
-282.0016800053
 10
435.1850020707
 20
-281.7504390796
 10
432.0303101717
 20
-281.2740864341
 10
428.9723427102
 20
-280.5736691952
 10
426.0178217622
 20
-279.6507270322
 10
423.173242006
 20
-278.5072887721
 10
420.4448564454
 20
-277.1458679404
 10
417.8386626638
 20
-275.5694572356
 10
415.3603896409
 20
-273.7815219505
 10
413.0154851586
 20
-271.7859923549
 10
410.8091038259
 20
-269.5872550559
 10
408.7460957478
 20
-267.1901433554
 10
406.8309958637
 20
-264.5999266251
 10
405.0680139789
 20
-261.8222987234
 10
403.4610255102
 20
-258.8633654795
 10
402.0135629669
 20
-255.7296312706
 10
400.7288081859
 20
-252.4279847247
 10
400.2641832093
 20
-251.0712491239
  0
ARC
  5
F2
330
1F
100
AcDbEntity
  8
0
  6
Continuous
 62
     7
370
    25
100
AcDbCircle
 10
525.8013300548
 20
-208.0753752983
 30
0.0
 40
144.4599323916757
100
AcDbArc
 50
132.3349151331
 51
167.6704613996
  0
LWPOLYLINE
  5
F3
330
1F
100
AcDbEntity
  8
0
  6
Continuous
 62
     7
370
    25
100
AcDbPolyline
 90
       69
 70
   128
 43
0.0
 10
557.7328968766
 20
-96.6087845786
 10
559.680429545
 20
-97.8137599444
 10
562.1587025679
 20
-99.6016952296
 10
564.5036070502
 20
-101.5972248251
 10
566.709988383
 20
-103.7959621241
 10
568.7729964611
 20
-106.1930738246
 10
570.6880963452
 20
-108.783290555
 10
572.45107823
 20
-111.5609184566
 10
574.0580666987
 20
-114.5198517006
 10
575.505529242
 20
-117.6535859094
 10
576.790284023
 20
-120.9552324553
 10
577.9095068719
 20
-124.4175336025
 10
578.860737494
 20
-128.0328784618
 10
579.6418848778
 20
-131.7933197204
 10
580.251231892
 20
-135.6905911123
 10
580.6874390595
 20
-139.7161255892
 10
580.9495475024
 20
-143.8610741528
 10
581.0369810493
 20
-148.1163253064
 10
580.9495475024
 20
-152.4725250845
 10
580.6874390595
 20
-156.9200976146
 10
580.251231892
 20
-161.4492661671
 10
579.6418848778
 20
-166.0500746464
 10
578.860737494
 20
-170.712409477
 10
577.9095068719
 20
-175.4260218352
 10
576.790284023
 20
-180.1805501779
 10
575.505529242
 20
-184.96554302
 10
574.0580666987
 20
-189.7704819088
 10
572.45107823
 20
-194.5848045457
 10
570.6880963452
 20
-199.3979280048
 10
568.7729964611
 20
-204.1992719961
 10
566.709988383
 20
-208.9782821235
 10
564.5036070502
 20
-213.7244530856
 10
562.1587025679
 20
-218.4273517685
 10
559.680429545
 20
-223.0766401802
 10
557.0742357635
 20
-227.6620981758
 10
554.3458502028
 20
-232.1736459235
 10
551.5012704467
 20
-236.6013660621
 10
548.5467494987
 20
-240.9355255019
 10
545.4887820371
 20
-245.1665968198
 10
542.3340901381
 20
-249.2852792027
 10
539.0896084992
 20
-253.2825188929
 10
535.762469195
 20
-257.1495290901
 10
532.3599859999
 20
-260.8778092665
 10
528.8896383104
 20
-264.4591638533
 10
525.3590547039
 20
-267.8857202557
 10
521.7759961693
 20
-271.1499461592
 10
518.148339047
 20
-274.2446660867
 10
514.4840577146
 20
-277.1630771723
 10
510.7912070578
 20
-279.898764115
 10
507.0779047637
 20
-282.4457132811
 10
503.3523134767
 20
-284.7983259236
 10
499.6226228549
 20
-286.9514304894
 10
495.8970315679
 20
-288.9002939874
 10
492.1837292738
 20
-290.6406323926
 10
488.4908786169
 20
-292.1686200634
 10
484.8265972846
 20
-293.4808981515
 10
481.1989401623
 20
-294.5745819847
 10
477.6158816277
 20
-295.4472674086
 10
474.0852980212
 20
-296.0970360712
 10
470.6149503317
 20
-296.5224596401
 10
467.2124671366
 20
-296.7226029419
 10
463.8853278324
 20
-296.6970260181
 10
460.6408461934
 20
-296.4457850924
 10
457.4861542945
 20
-295.9694324469
 10
454.4281868329
 20
-295.2690152081
 10
451.4736658849
 20
-294.346073045
 10
448.6290861288
 20
-293.2026347849
 10
445.9007005681
 20
-291.8412139532
 10
445.242039455
 20
-291.4697786142
  0
LINE
  5
F4
330
1F
100
AcDbEntity
  8
0
  6
Continuous
 62
     7
370
    25
100
AcDbLine
 10
23.8914362981
 20
-115.2343655002
 30
0.0
 11
23.8914362981
 21
-151.2343655002
 31
0.0
  0
LINE
  5
F5
330
1F
100
AcDbEntity
  8
0
  6
Continuous
 62
     7
370
    25
100
AcDbLine
 10
248.8914362981
 20
-151.2343655002
 30
0.0
 11
248.8914362981
 21
-115.2343655002
 31
0.0
  0
LINE
  5
F6
330
1F
100
AcDbEntity
  8
0
  6
Continuous
 62
     7
370
    25
100
AcDbLine
 10
23.8914362981
 20
-151.2343655002
 30
0.0
 11
36.3914362981
 21
-161.6189808848
 31
0.0
  0
LINE
  5
F7
330
1F
100
AcDbEntity
  8
0
  6
Continuous
 62
     7
370
    25
100
AcDbLine
 10
236.3914362981
 20
-161.6189808848
 30
0.0
 11
248.8914362981
 21
-151.2343655002
 31
0.0
  0
LINE
  5
F8
330
1F
100
AcDbEntity
  8
0
  6
Continuous
 62
     7
370
    25
100
AcDbLine
 10
36.3914362981
 20
-161.6189808848
 30
0.0
 11
36.3914362981
 21
-197.6189808848
 31
0.0
  0
LINE
  5
F9
330
1F
100
AcDbEntity
  8
0
  6
Continuous
 62
     7
370
    25
100
AcDbLine
 10
236.3914362981
 20
-197.6189808848
 30
0.0
 11
236.3914362981
 21
-161.6189808848
 31
0.0
  0
LINE
  5
FA
330
1F
100
AcDbEntity
  8
0
  6
Continuous
 62
     7
370
    25
100
AcDbLine
 10
36.3914362981
 20
-197.6189808848
 30
0.0
 11
46.3914362981
 21
-205.9266731925
 31
0.0
  0
LINE
  5
FB
330
1F
100
AcDbEntity
  8
0
  6
Continuous
 62
     7
370
    25
100
AcDbLine
 10
226.3914362981
 20
-205.9266731925
 30
0.0
 11
236.3914362981
 21
-197.6189808848
 31
0.0
  0
LINE
  5
FC
330
1F
100
AcDbEntity
  8
0
  6
Continuous
 62
     7
370
    25
100
AcDbLine
 10
46.3914362981
 20
-205.9266731925
 30
0.0
 11
46.3914362981
 21
-241.9266731925
 31
0.0
  0
LINE
  5
FD
330
1F
100
AcDbEntity
  8
0
  6
Continuous
 62
     7
370
    25
100
AcDbLine
 10
226.3914362981
 20
-241.9266731925
 30
0.0
 11
226.3914362981
 21
-205.9266731925
 31
0.0
  0
LINE
  5
FE
330
1F
100
AcDbEntity
  8
0
  6
Continuous
 62
     7
370
    25
100
AcDbLine
 10
46.3914362981
 20
-241.9266731925
 30
0.0
 11
56.3914362981
 21
-250.2343655002
 31
0.0
  0
LINE
  5
FF
330
1F
100
AcDbEntity
  8
0
  6
Continuous
 62
     7
370
    25
100
AcDbLine
 10
216.3914362981
 20
-250.2343655002
 30
0.0
 11
226.3914362981
 21
-241.9266731925
 31
0.0
  0
LINE
  5
100
330
1F
100
AcDbEntity
  8
0
  6
Continuous
 62
     7
370
    25
100
AcDbLine
 10
56.3914362981
 20
-250.2343655002
 30
0.0
 11
56.3914362981
 21
-286.2343655002
 31
0.0
  0
LINE
  5
101
330
1F
100
AcDbEntity
  8
0
  6
Continuous
 62
     7
370
    25
100
AcDbLine
 10
216.3914362981
 20
-286.2343655002
 30
0.0
 11
216.3914362981
 21
-250.2343655002
 31
0.0
  0
LINE
  5
102
330
1F
100
AcDbEntity
  8
0
  6
Continuous
 62
     7
370
    25
100
AcDbLine
 10
23.8914362981
 20
-151.2343655002
 30
0.0
 11
248.8914362981
 21
-151.2343655002
 31
0.0
  0
LINE
  5
103
330
1F
100
AcDbEntity
  8
0
  6
Continuous
 62
     7
370
    25
100
AcDbLine
 10
23.8914362981
 20
-115.2343655002
 30
0.0
 11
248.8914362981
 21
-115.2343655002
 31
0.0
  0
LINE
  5
104
330
1F
100
AcDbEntity
  8
0
  6
Continuous
 62
     7
370
    25
100
AcDbLine
 10
36.3914362981
 20
-161.6189808848
 30
0.0
 11
236.3914362981
 21
-161.6189808848
 31
0.0
  0
LINE
  5
105
330
1F
100
AcDbEntity
  8
0
  6
Continuous
 62
     7
370
    25
100
AcDbLine
 10
36.3914362981
 20
-197.6189808848
 30
0.0
 11
236.3914362981
 21
-197.6189808848
 31
0.0
  0
LINE
  5
106
330
1F
100
AcDbEntity
  8
0
  6
Continuous
 62
     7
370
    25
100
AcDbLine
 10
46.3914362981
 20
-205.9266731925
 30
0.0
 11
226.3914362981
 21
-205.9266731925
 31
0.0
  0
LINE
  5
107
330
1F
100
AcDbEntity
  8
0
  6
Continuous
 62
     7
370
    25
100
AcDbLine
 10
46.3914362981
 20
-241.9266731925
 30
0.0
 11
226.3914362981
 21
-241.9266731925
 31
0.0
  0
LINE
  5
108
330
1F
100
AcDbEntity
  8
0
  6
Continuous
 62
     7
370
    25
100
AcDbLine
 10
56.3914362981
 20
-250.2343655002
 30
0.0
 11
216.3914362981
 21
-250.2343655002
 31
0.0
  0
LINE
  5
109
330
1F
100
AcDbEntity
  8
0
  6
Continuous
 62
     7
370
    25
100
AcDbLine
 10
56.3914362981
 20
-286.2343655002
 30
0.0
 11
216.3914362981
 21
-286.2343655002
 31
0.0
  0
ENDSEC
  0
SECTION
  2
OBJECTS
  0
DICTIONARY
  5
C
330
0
100
AcDbDictionary
281
     1
  3
ACAD_GROUP
350
D
  3
ACAD_LAYOUT
350
1A
  3
ACAD_MLINESTYLE
350
17
  3
ACAD_PLOTSETTINGS
350
19
  3
ACAD_PLOTSTYLENAME
350
E
  3
ACAD_SCALELIST
350
47
  0
DICTIONARY
  5
D
102
{ACAD_REACTORS
330
C
102
}
330
C
100
AcDbDictionary
281
     1
  0
DICTIONARY
  5
1A
102
{ACAD_REACTORS
330
C
102
}
330
C
100
AcDbDictionary
281
     1
  3
Layout1
350
1E
  3
Layout2
350
26
  3
Model
350
22
  0
DICTIONARY
  5
17
102
{ACAD_REACTORS
330
C
102
}
330
C
100
AcDbDictionary
281
     1
  3
Standard
350
18
  0
DICTIONARY
  5
19
102
{ACAD_REACTORS
330
C
102
}
330
C
100
AcDbDictionary
281
     1
  0
ACDBDICTIONARYWDFLT
  5
E
102
{ACAD_REACTORS
330
C
102
}
330
C
100
AcDbDictionary
281
     1
  3
Normal
350
F
100
AcDbDictionaryWithDefault
340
F
  0
DICTIONARY
  5
47
102
{ACAD_REACTORS
330
C
102
}
330
C
100
AcDbDictionary
281
     1
  3
A0
350
48
  3
A1
350
49
  3
A2
350
4A
  3
A3
350
4B
  3
A4
350
4C
  3
A5
350
4D
  3
A6
350
4E
  3
A7
350
4F
  3
A8
350
50
  3
A9
350
51
  3
B0
350
52
  3
B1
350
53
  3
B2
350
54
  3
B3
350
55
  3
B4
350
56
  3
B5
350
57
  3
B6
350
58
  3
B7
350
59
  3
B8
350
5A
  3
B9
350
5B
  3
C0
350
5C
  3
C1
350
5D
  3
C2
350
5E
  3
C3
350
5F
  3
C4
350
60
  3
C5
350
61
  3
C6
350
62
  3
C7
350
63
  3
C8
350
64
  3
C9
350
65
  3
D0
350
66
  3
D1
350
67
  3
D2
350
68
  0
LAYOUT
  5
1E
102
{ACAD_REACTORS
330
1A
102
}
330
1A
100
AcDbPlotSettings
  1

  2
none_device
  4

  6

 40
0.0
 41
0.0
 42
0.0
 43
0.0
 44
0.0
 45
0.0
 46
0.0
 47
0.0
 48
0.0
 49
0.0
140
0.0
141
0.0
142
1.0
143
1.0
 70
   688
 72
     1
 73
     0
 74
     5
  7

 75
    16
147
1.0
148
0.0
149
0.0
100
AcDbLayout
  1
Layout1
 70
     1
 71
     1
 10
0.0
 20
0.0
 11
420.0
 21
297.0
 12
0.0
 22
0.0
 32
0.0
 14
1.0000000000E+20
 24
1.0000000000E+20
 34
1.0000000000E+20
 15
-1.0000000000E+20
 25
-1.0000000000E+20
 35
-1.0000000000E+20
146
0.0
 13
0.0
 23
0.0
 33
0.0
 16
1.0
 26
0.0
 36
0.0
 17
0.0
 27
1.0
 37
0.0
 76
     0
330
1B
  0
LAYOUT
  5
26
102
{ACAD_REACTORS
330
1A
102
}
330
1A
100
AcDbPlotSettings
  1

  2
none_device
  4

  6

 40
0.0
 41
0.0
 42
0.0
 43
0.0
 44
0.0
 45
0.0
 46
0.0
 47
0.0
 48
0.0
 49
0.0
140
0.0
141
0.0
142
1.0
143
1.0
 70
   688
 72
     1
 73
     0
 74
     5
  7

 75
    16
147
1.0
148
0.0
149
0.0
100
AcDbLayout
  1
Layout2
 70
     1
 71
     2
 10
0.0
 20
0.0
 11
0.0
 21
0.0
 12
0.0
 22
0.0
 32
0.0
 14
0.0
 24
0.0
 34
0.0
 15
0.0
 25
0.0
 35
0.0
146
0.0
 13
0.0
 23
0.0
 33
0.0
 16
1.0
 26
0.0
 36
0.0
 17
0.0
 27
1.0
 37
0.0
 76
     0
330
23
  0
LAYOUT
  5
22
102
{ACAD_REACTORS
330
1A
102
}
330
1A
100
AcDbPlotSettings
  1

  2
none_device
  4
Letter_(8.50_x_11.00_Inches)
  6

 40
6.35
 41
6.35
 42
6.35000508
 43
6.35000508
 44
215.9
 45
279.4
 46
0.0
 47
0.0
 48
0.0
 49
0.0
140
0.0
141
0.0
142
1.0
143
1.0
 70
  1712
 72
     1
 73
     0
 74
     0
  7

 75
     0
147
1.0
148
0.0
149
0.0
100
AcDbLayout
  1
Model
 70
     1
 71
     0
 10
0.0
 20
0.0
 11
279.4
 21
215.9
 12
0.0
 22
0.0
 32
0.0
 14
0.0
 24
0.0
 34
0.0
 15
279.4
 25
215.9
 35
0.0
146
0.0
 13
0.0
 23
0.0
 33
0.0
 16
1.0
 26
0.0
 36
0.0
 17
0.0
 27
1.0
 37
0.0
 76
     0
330
1F
331
29
  0
MLINESTYLE
  5
18
102
{ACAD_REACTORS
330
17
102
}
330
17
100
AcDbMlineStyle
  2
Standard
 70
     0
  3

 62
   256
 51
90.0
 52
90.0
 71
     2
 49
0.5
 62
   256
  6
BYLAYER
 49
-0.5
 62
   256
  6
BYLAYER
  0
ACDBPLACEHOLDER
  5
F
102
{ACAD_REACTORS
330
E
102
}
330
E
  0
SCALE
  5
48
102
{ACAD_REACTORS
330
47
102
}
330
47
100
AcDbScale
 70
     0
300
1:1
140
1.0
141
1.0
290
     1
  0
SCALE
  5
49
102
{ACAD_REACTORS
330
47
102
}
330
47
100
AcDbScale
 70
     0
300
1:2
140
1.0
141
2.0
290
     0
  0
SCALE
  5
4A
102
{ACAD_REACTORS
330
47
102
}
330
47
100
AcDbScale
 70
     0
300
1:4
140
1.0
141
4.0
290
     0
  0
SCALE
  5
4B
102
{ACAD_REACTORS
330
47
102
}
330
47
100
AcDbScale
 70
     0
300
1:5
140
1.0
141
5.0
290
     0
  0
SCALE
  5
4C
102
{ACAD_REACTORS
330
47
102
}
330
47
100
AcDbScale
 70
     0
300
1:8
140
1.0
141
8.0
290
     0
  0
SCALE
  5
4D
102
{ACAD_REACTORS
330
47
102
}
330
47
100
AcDbScale
 70
     0
300
1:10
140
1.0
141
10.0
290
     0
  0
SCALE
  5
4E
102
{ACAD_REACTORS
330
47
102
}
330
47
100
AcDbScale
 70
     0
300
1:16
140
1.0
141
16.0
290
     0
  0
SCALE
  5
4F
102
{ACAD_REACTORS
330
47
102
}
330
47
100
AcDbScale
 70
     0
300
1:20
140
1.0
141
20.0
290
     0
  0
SCALE
  5
50
102
{ACAD_REACTORS
330
47
102
}
330
47
100
AcDbScale
 70
     0
300
1:30
140
1.0
141
30.0
290
     0
  0
SCALE
  5
51
102
{ACAD_REACTORS
330
47
102
}
330
47
100
AcDbScale
 70
     0
300
1:40
140
1.0
141
40.0
290
     0
  0
SCALE
  5
52
102
{ACAD_REACTORS
330
47
102
}
330
47
100
AcDbScale
 70
     0
300
1:50
140
1.0
141
50.0
290
     0
  0
SCALE
  5
53
102
{ACAD_REACTORS
330
47
102
}
330
47
100
AcDbScale
 70
     0
300
1:100
140
1.0
141
100.0
290
     0
  0
SCALE
  5
54
102
{ACAD_REACTORS
330
47
102
}
330
47
100
AcDbScale
 70
     0
300
2:1
140
2.0
141
1.0
290
     0
  0
SCALE
  5
55
102
{ACAD_REACTORS
330
47
102
}
330
47
100
AcDbScale
 70
     0
300
4:1
140
4.0
141
1.0
290
     0
  0
SCALE
  5
56
102
{ACAD_REACTORS
330
47
102
}
330
47
100
AcDbScale
 70
     0
300
8:1
140
8.0
141
1.0
290
     0
  0
SCALE
  5
57
102
{ACAD_REACTORS
330
47
102
}
330
47
100
AcDbScale
 70
     0
300
10:1
140
10.0
141
1.0
290
     0
  0
SCALE
  5
58
102
{ACAD_REACTORS
330
47
102
}
330
47
100
AcDbScale
 70
     0
300
100:1
140
100.0
141
1.0
290
     0
  0
SCALE
  5
59
102
{ACAD_REACTORS
330
47
102
}
330
47
100
AcDbScale
 70
     0
300
1/128" = 1'-0"
140
0.0078125
141
12.0
290
     0
  0
SCALE
  5
5A
102
{ACAD_REACTORS
330
47
102
}
330
47
100
AcDbScale
 70
     0
300
1/64" = 1'-0"
140
0.015625
141
12.0
290
     0
  0
SCALE
  5
5B
102
{ACAD_REACTORS
330
47
102
}
330
47
100
AcDbScale
 70
     0
300
1/32" = 1'-0"
140
0.03125
141
12.0
290
     0
  0
SCALE
  5
5C
102
{ACAD_REACTORS
330
47
102
}
330
47
100
AcDbScale
 70
     0
300
1/16" = 1'-0"
140
0.0625
141
12.0
290
     0
  0
SCALE
  5
5D
102
{ACAD_REACTORS
330
47
102
}
330
47
100
AcDbScale
 70
     0
300
3/32" = 1'-0"
140
0.09375
141
12.0
290
     0
  0
SCALE
  5
5E
102
{ACAD_REACTORS
330
47
102
}
330
47
100
AcDbScale
 70
     0
300
1/8" = 1'-0"
140
0.125
141
12.0
290
     0
  0
SCALE
  5
5F
102
{ACAD_REACTORS
330
47
102
}
330
47
100
AcDbScale
 70
     0
300
3/16" = 1'-0"
140
0.1875
141
12.0
290
     0
  0
SCALE
  5
60
102
{ACAD_REACTORS
330
47
102
}
330
47
100
AcDbScale
 70
     0
300
1/4" = 1'-0"
140
0.25
141
12.0
290
     0
  0
SCALE
  5
61
102
{ACAD_REACTORS
330
47
102
}
330
47
100
AcDbScale
 70
     0
300
3/8" = 1'-0"
140
0.375
141
12.0
290
     0
  0
SCALE
  5
62
102
{ACAD_REACTORS
330
47
102
}
330
47
100
AcDbScale
 70
     0
300
1/2" = 1'-0"
140
0.5
141
12.0
290
     0
  0
SCALE
  5
63
102
{ACAD_REACTORS
330
47
102
}
330
47
100
AcDbScale
 70
     0
300
3/4" = 1'-0"
140
0.75
141
12.0
290
     0
  0
SCALE
  5
64
102
{ACAD_REACTORS
330
47
102
}
330
47
100
AcDbScale
 70
     0
300
1" = 1'-0"
140
1.0
141
12.0
290
     0
  0
SCALE
  5
65
102
{ACAD_REACTORS
330
47
102
}
330
47
100
AcDbScale
 70
     0
300
1-1/2" = 1'-0"
140
1.5
141
12.0
290
     0
  0
SCALE
  5
66
102
{ACAD_REACTORS
330
47
102
}
330
47
100
AcDbScale
 70
     0
300
3" = 1'-0"
140
3.0
141
12.0
290
     0
  0
SCALE
  5
67
102
{ACAD_REACTORS
330
47
102
}
330
47
100
AcDbScale
 70
     0
300
6" = 1'-0"
140
6.0
141
12.0
290
     0
  0
SCALE
  5
68
102
{ACAD_REACTORS
330
47
102
}
330
47
100
AcDbScale
 70
     0
300
1'-0" = 1'-0"
140
12.0
141
12.0
290
     0
  0
ENDSEC
  0
EOF
